Song name
# A B C D E F G H I J K L M N O P Q R S T U V W X Y Z

Paul Revere And The Raiders - Little Red Ridding Hood tab

Highlighted       Show chord diagrams
-------------------------------------------------------------------------------
             Paul Revere & The Raiders - Little Red Ridding Hood
-------------------------------------------------------------------------------

Tabbed by: brian_s
Email: branimir.sremec@kc.t-com.hr


Intro:
e------------0---------------------------------------------------------|
B------------0---------------------------------------------------------|
G------------0---------------------------------------------------------|
D---5---4----2---------------------------------------------------------|
A------------2---------------------------------------------------------|
E------------0---------------------------------------------------------|


INTRO:
(howls)
Who is that i see walking in these woods?
Why it's little red ridding hood


VERSE:
Em                    G
Hey there little red ridding hood
A
you sure are lookin good
C                 D                  Em
your everything a big bad wolf could want
D
listen to me

little red ridding hood
i don't think little big girls should
go walking in these spooky old woods alone

(howls)


CHORUS:
G                         Em
what big eyes you have
the kind of eyes that drive wolves mad
A
so just to see that you don't get chased
           D
i think i ought to walk with you for a ways
what full lips you have
they sure to lure someone bad
so until you get to grandma's place
i think you ought to walk with me and be safe


VERSE:
i'm gonna keep my sheep suit on
until i'm sure that you;ve been shown
that i can be trusted walking with you alone

(howls)

little red ridding hood
I'd like to hold you if i could
but you might think i'm a big bad wolf so i wont

(howls)


Chorus:
what a big heart i have
the better to love you with
little red ridding hood
even bad wolves can be good
i'll try to keep satisfied
just to walk close by your side
maybe you'll see things my way
before we get to grandma's place


VERSE:
little red ridding hood
you sure are lookin good
you're everything a big bad wolf could want
(howls)
I mean bad
Bad
Tap to rate this tab
# A B C D E F G H I J K L M N O P Q R S T U V W X Y Z