Song name
# A B C D E F G H I J K L M N O P Q R S T U V W X Y Z

Paul Rodgers - Good Morning Little School Girl Part 2 chords

Highlighted       Show chord diagrams
This is the song "Good Morning Little School Girl (Part 2)" off Paul Rodgers' tribute 
album to Muddy Waters, featuring Richie Sambora.

The easiest way to play this in standard tuning is to capo up to the first fret. The 
following tab is with the capo on.

Main Riff:
e --------------------- ----------------------|
B --------------------- ----------------------|
G -2------------------- -2--------------------|
D -2--5---------------- -2--5-----------------|
A -0----7-6-5-3-0-3b-0- -0----7-6-5-3-0-3b~~~-|
E --------------------- ----------------------|

Riff 2:
e --------------------- ----------------------|
B -3------------------- -3--------------------|
G -2--5---------------- -2--5-----------------|
D -0----7-6-5-3-0-3b-0- -0----7-6-5-3-0-3b~~~-|
A --------------------- ----------------------|
E --------------------- ----------------------|

Intro: Main Riff x 2

Verse 1:
A (Main Riff)
Good morning little schoolgirl, can I come go home with you?
D (Riff 2)                                    A (Main Riff)
Good morning little schoolgirl, can I come go home with you?
          E5               E5/Eb5/D          A (Main Riff)
Tell your momma and your poppa, I'm a little schoolboy too

Verse 2:
A
I'm gonna buy me an airplane, fly all over this town
Tell everybody baby, lord knows you're fine
D
I can't help it baby, I just can't help myself
A
So young and pretty now, you love somebody else
E                       E5/Eb5/D                 A
Good morning little schoolgirl, oh can I come go home with you?


Solo


Verse 3:
I'm gonna buy me an airplane and fly all over this town
Tell everybody baby, lord knows you're fine
Good morning little schoolgirl, oh can I come go home with you?
Tell your momma and your poppa, I'm a little schoolboy too

Outro:
I can't help myself
You're so young and pretty
Good morning, good morning, good morning, little schoolgirl
Hey, can I go home with you?

I can't help myself
Good morning little schoolgirl
Tap to rate this tab
 
# A B C D E F G H I J K L M N O P Q R S T U V W X Y Z