Song name
# A B C D E F G H I J K L M N O P Q R S T U V W X Y Z

Paul Samson - Once Bitten tab

-----------------------------------------------------------------------------
			   Once Bitten-Samson
-----------------------------------------------------------------------------
Tabbed by:John davis
Email:redwood237@yahoo.com

Tuning:standard
intro   repeat 4x
e|--------------------------------------------------------------------|
B|--------------------------------------------------------------------|
G|--------------------------------------------------------------------|
D|-2-4----------------------------------------------------------------|
A|-0-2---5-4-2--------------------------------------------------------|
E|-------------3~-----------------------------------------------------|


verse repeat 6x
e|--------------------------------------------------------------------|
B|--------------------------------------------------------------------|
G|-----9---------9-----------9----------------------------------------|
D|-----9---------9-----------9----------------------------------------|
A|--2--7---------7-----------7-------------5--------------------------|
E|--0----0-0-0-0-----0-0-0-0---------5-6-7---7-6-5--------------------|
Bridge  4x.NOTE the first chord is like the last chord play the section  then start over 
the A powerchord
e|--------------------------------------------------------------------|
B|--------------------------------------------------------------------|
G|--------------------------------------------------------------------|
D|-----------------------------5--------------------------------------|
A|----------7--5/7-7--5/7-7----3-5------------------------------------|
E|----------5--3/5-5--3/5-5------3------------------------------------|
chorus 2x
e|--------------------------------------------------------------------|
B|--------------------------------------------------------------------|
G|--------------------------------------------------------------------|
D|-2-4-4-----------2--4-4---------------------------------------------|
A|-0-2-2---5-4-2---0--2-2--5-4-2--------------------------------------|
E|--------------3----------------3------------------------------------|



| /  slide up
| \  slide down
| h  hammer-on
| p  pull-off
| ~  vibrato
| +  harmonic
| x  Mute note
=============================================================================
Tap to rate this tab
# A B C D E F G H I J K L M N O P Q R S T U V W X Y Z