Song name
# A B C D E F G H I J K L M N O P Q R S T U V W X Y Z

Paul Samson - Blood Lust tab

-----------------------------------------------------------------------------
			     SONG NAME - Band Name
-----------------------------------------------------------------------------
Tabbed by:John davis
Email:redwood237@yahoo.com

Tuning:standard
im not so sure about the last chord but all together its pretty close


e|-------------------------------------------------------------------------|
B|-------------------------------------------------------------------------|
G|------------------------------------------5------------------------------|
D|---------3--5-5--2-------3-3-3-/-5-5------5------------------------------|
A|---5-5-5-1--3-3----3-0---1-1-1-/-3-3-------------------------------------|
E|---3-3-3-----------------------------3~----------------------------------|



| /  slide up
| \  slide down
| h  hammer-on
| p  pull-off
| ~  vibrato
| +  harmonic
| x  Mute note
===============================================================================
Tap to rate this tab
 
# A B C D E F G H I J K L M N O P Q R S T U V W X Y Z