Song name
# A B C D E F G H I J K L M N O P Q R S T U V W X Y Z

Paul Simon - Crazy Love Vol 2 tab

"Crazy Love, Vol. II" by Paul Simon

Tuning: Standard


Intro/Verses:

G C G D

e|------------7--------8---------------------7-------------------------------|
B|---------8-----8--------8---------------8-----8----10----------------------|
G|------7--------------------9---------7-----------------11------------------|
D|---9------------------------------9------------------------12--------------|
A|---------------------------------------------------------------------------|
E|---------------------------------------------------------------------------|


Then this part comes in:

e|---15--14------12----------------------------------------------------------|
B|-----------15------13----15------------------------------------------------|
G|---------------------------------------------------------------------------|
D|---------------------------------------------------------------------------|
A|---------------------------------------------------------------------------|
E|---------------------------------------------------------------------------|


"Fat Charlie the archangel sloped into the room..."

e|---19--17--15--14--12----------------------12--14--------------------------|
B|-----------------------15--13--12--13--15----------------------------------|
G|---------------------------------------------------------------------------|
D|---------------------------------------------------------------------------|
A|---------------------------------------------------------------------------|
E|---------------------------------------------------------------------------|


F
I don't want no part of this

C
crazy love

F
I don't want no part of

C
your love

e|---8--------------------|
B|------8-----------------|
G|---------9--------------|
D|------------10----------|
A|------------------------|
E|------------------------|


Tap to rate this tab
# A B C D E F G H I J K L M N O P Q R S T U V W X Y Z