Song name
# A B C D E F G H I J K L M N O P Q R S T U V W X Y Z

Paul Simon - Youre The One tab

You're the One - Paul Simon
Tabbed by Sean Pierce (sparecactus)

I did not write out the exact amount of times to play each chord. Listen and play along 
to get the correct rhythm.

Intro

Guitar 2 - background guitar (semi palm-muted)
e|----------------------------------|
B|----------------------------------|
G|--------------------5-------------|
D|--7-5-7-5-8-7-5-7-5---------------| Reapeat
A|----------------------------------|
E|----------------------------------|

Guitar 1 (semi palm-muted)
e|-------------------------|
B|-6-6-6-6-6-6---4-6-------|
G|-------------5-----------|
D|-------------------------| Repeat
A|-------------------------|
E|-------------------------|

Verse

Guitar 1 - main guitar (light strumming)
e|-/5-5-5-5-5-/6-6-6-6-6-8-6-5--------------|
B|-/6-6-6-6-6-/6-6-6-6-6-----6--------------|
G|-/5-5-5-5-5-/6-6-6-6-6-----5--------------|
D|------------------------------------------| x2
A|------------------------------------------|
E|------------------------------------------|

e|-3-5-3-1-1-3-1-0-------------0-0-1-3-3-1-1-1---------|
B|-4-----3-3-------3-1-----1-3-1-1---3-3---2-2-2-2p1-1-|
G|-3-----3-3-----------2-2-----2-2---3-3---3-3---------|
D|-----------------------------------------------------|
A|-----------------------------------------------------|
E|-----------------------------------------------------|

Chorus (guitar 1)

e|-5-55---5-5-------6-6------6--------------------|
B|-6-66---6-6-------6-6------6--------------------|
G|-5-55---5-5-------7-7------7--------------------|
D|------------------------------------------------|
A|------------------------------------------------|
E|------------------------------------------------|

Chorus (guitar 2)

e|------------------------------------------------|
B|------------------------------------------------|
G|---------5---------5---------5---------5--------|
D|-7-5-7-5---7-5-7-5---6-5-6-5---6-5-6-5----------|
A|------------------------------------------------|
E|------------------------------------------------|

Outro

e|---------------5--------------------------------|
B|-6h8p6---6h8p6---6h8p6--------------------------|
G|-------7---------------7-5h7p5------------------|
D|------------------------------------------------|
A|-------------------------------5----------------|
E|------------------------------------------------|
Tap to rate this tab
# A B C D E F G H I J K L M N O P Q R S T U V W X Y Z