Song name
# A B C D E F G H I J K L M N O P Q R S T U V W X Y Z

Paul Simon - Papa Hobo tab

[Intro]

   3/4 A
      |---0-00--|---------|
      |---2-22--|---2--2--|
      |---2--2--|---2--2--|
      |---------|---------|
      |0--------|0--------|
      |---------|---------|
          v ^v      v  v

       A         Asus4     A         Asus4     A         Asus4     E
      |---0--0--|---0-00--|---0-00--|---0-00--|---0-00--|---0-00--|---0--0--|---0-00--|
      |---2--2--|--33-33--|--22-22--|---3-33--|--22-22--|--33-33--|---0--0--|---0-00--|
      |---2--2--|---2--2--|---2--2--|---2--2--|---2--2--|---2--2--|--11--1--|---1--1--|
      |---------|---------|---------|---------|---------|---------|---------|2--------|
      |0--------|0--------|0--------|0--------|0--------|0--------|---------|---------|
      |---------|---------|---------|---------|---------|---------|0--------|---------|
          v  v     ^v ^v     ^v ^v      v ^v     ^v ^v     ^v ^v     ^v  v      v ^v

       A         Asus4     E                   A         Asus4     E
      |---0-00--|---0-00--|---0--0--|--00-00--|---0-00--|---0-00--|---0-00--|---0-00--||
      |---2-22--|--33-33--|---0--0--|---0-00--|--22-22--|--33-33--|---0-00--|--00-00--||
      |---2--2--|---2--2--|--11--1--|---1--1--|---2--2--|---2--2--|--11--1--|---1--1--||
      |---------|---------|---------|2--------|---------|---------|---------|2--------||
      |0--------|0--------|---------|---------|0--------|0--------|---------|---------||
      |---------|---------|0--------|---------|---------|---------|0--------|---------||
          v ^v     ^v ^v     ^v  v     ^v ^v     ^v ^v     ^v ^v     ^v ^v     ^v ^v

[A]
       A         B7        E         E7        D         D7/A      G         E
      |---0-----|---------|---0--0--|---0--0--|---2--2--|---2--2--|---------|---0--0--|
      |---2-----|------0--|---0--0--|---3--3--|---3--3--|---1--1--|---------|---0--0--|
      |---2-----|---2--2--|---1--1--|---1--1--|---2--2--|---2--2--|---------|---1--1--|
      |---------|---1--1--|---------|---------|0--------|---------|---------|---------|
      |0-----0--|2--------|---------|---------|---------|0--------|---------|---------|
      |---------|---------|0--------|0--------|---------|---------|3--2--1--|0--------|
          v         v  v      v  v      v  v      v  v      v  v                   v

       D         D7/A      G         A         D         E         A
      |---2--2--|---2--2--|---------|---------|---2--2--|---0--0--|---------|---------|
      |---3--3--|---1--1--|---0--0--|---2--2--|---3--3--|---0--0--|---2--2--|---2-22--|
      |---2--2--|---2--2--|---0--0--|---2--2--|---2--2--|---1--1--|---2--2--|---2-22--|
      |0--------|---------|---0--0--|---2--2--|0--------|2--------|---2--2--|---2--2--|
      |---------|0--------|---------|0--------|---------|---------|0--------|0--------|
      |---------|---------|3--------|---------|---------|---------|---------|---------|
          v  v      v  v      v  v      v  v      v  v      v  v      v  v      v ^v  

       G         G7        C         A7/C#     G/D       E       C
      |---------|---1-----|---0--0--|---3--3--|---------|------X--| ---0--0--|---------||
      |---0-00--|---0--0--|---1--1--|---2--2--|---0-----|------X--| ---1--1--|---------||
      |---0-00--|---0--0--|---0--0--|---2--2--|---0-----|------X--| ---0--0--|0--0--0--||
      |---0--0--|------0--|---------|---------|---0-----|---2----0| ---------|---------||
      |---------|---------|3--------|4--------|5-----5\-|---------|h3-------3|--2--0---||
      |3--------|3--------|---------|---------|---------|0--------| ---------|---------||
          v ^v         v         v         v      v                    v  v
                                                                  *  not flip by right finger,
                                                                     only tap by left finger  
[Interlude]
       G         Edim  Am  G                   Am   Em   Am    Em  Am   Em   Am
      |---------|---------|---3-----|---------|---------|---------|---------|------0--||
      |---0--0--|--2---1--|0-----0--|0----0---|--1X--0--|--1--1--0|--1X--0--|--1---1--||
      |------0--|---------|0-----0--|0----0--0|--2X--0--|--2--2--0|--2X--0--|--2---2--||
      |---0--0--|--2------|------0--|0----0--0|--2X--0--|--2--2--0|--2X--0--|--2------||
      |--------0|1--0-00--|---------|---------|0--------|0--------|0--------|0--0-----||
      |3--------|---------|3-------3|---3--3--|-----0---|------0--|-----0---|---------||
             v                   v   v    ^  ^                                     v

[B1]
       C         C/G       C                   F
      |---0-00--|---0-00--|---0-00--|---0-00--|---1-11--|---1-11--|---1-11--|---------|
      |---1-11--|---1-11--|---1-11--|---1-11--|---1-11--|---1-11--|---1-11--|------0--|
      |---0--0--|---0--0--|---0--0--|---0--0--|---2--2--|---2--2--|---2--2--|------0--|
      |---------|---------|---------|---------|---------|3--------|---------|3--2--0--|
      |3--------|---------|3--------|3--------|---------|---------|---------|---------|
      |---------|3--------|---------|---------|1--------|---------|1--------|---------|
          v ^v      v ^v      v ^v      v ^v      v ^v      v ^v      v ^v         v

       C         C/B       Am        Am/E        G                   G7
      |---0--0--|---0--0--|---0-00--|  ---0-00--|---------|---------|---------|---------|
      |---1--1--|---1--1--|---1-11--|  ---1-11--|---0--0--|---0-----|--00-00--|---0--0--|
      |---0--0--|---0--0--|---2--2--|  ---2--2--|---0--0--|---0-----|---0--0--|---0--0--|
      |---------|---------|---------|0h2--------|---0--0--|---0--2--|3--------|---3--3--|
      |3--------|2--------|0--------|  ---------|---------|---------|---------|---------|
      |---------|---------|---------|  ---------|3--------|3--------|---------|3--------|
          v  v      v  v      v ^v        v ^v      v  v      v        ^v ^v      v  v

[B2]
       C         C/G       C                   F
      |---0--0--|---0--0--|---0-00--|---------|---1--1--|---1-11--|---1-1---|---------|
      |---1--1--|---1--1--|---1-11--|1--1--1--|1--1--1--|---1-11--|---1-11--|1--0--0--|
      |---0--0--|---0--0--|--00--0--|0--0--0--|2--2--2--|---2--2--|---2--2--|2--0--0--|
      |---------|---------|---------|---0--2--|---------|3--------|------3--|3--2--0--|
      |3--------|---------|3--------|3--------|---------|---------|---------|---------|
      |---------|3--------|---------|---------|1--------|---------|3--------|---------|
          v  v      v  v     ^v ^v                v  v      v ^v      v ^

       C         E7/B      Am        Am7/G     D/F#                G
      |0--0--0--|---0--0--|---0-00--|---0--0--|---2--2--|---2-----|---------|---------|
      |1--1--1--|3--3--3--|1--1-11--|1--1--1--|---3--3--|---1-----|---0--0--|--0------|
      |0--0--0--|1--1--1--|2--2--2--|0--0--0--|2--2--2--|---2-----|---0--0--|---------|
      |---------|2--------|2--------|2--------|0--------|------0--|---0--0--|---0--2--|
      |3--------|2--------|0--------|---------|---------|---------|---------|---------|
      |---------|---------|---------|3--------|2--------|2--------|3--------|3--------|
          v  v      v  v      v ^v      v  v      v  v      v         v  v

       G7        G
      |---------|---------||
      |---0--0--|---0--0--||
      |---0--0--|---0--0--||
      |3--------|---0--0--||
      |---------|---------||
      |---------|3--------||
          v  v      v  v

[C]
       C      C# D         G                   F                   Bb A  Ab  v G7
      |---X-----|---------|---------|---------|---1--1--|---1-11--|---------|---1-----||
      |---X-----|---X-----|---0--0--|---0--0--|---1--1--|---1-11--|--3--2--1|--0---0--||
      |---X-0--0|---X-----|---0--0--|---0--0--|---2--2--|---2--2--|-3--2--1-|-0----0--||
      |---------|---X-4---|---0--0--|---0--0--|---------|3--------|3--2--1--|0-----0--||
      |3-----4--|5--X-----|---------|---------|---------|---------|---------|---------||
      |---------|---------|3--------|3--------|1--------|---------|---------|---------||
                              v  v      v  v      v  v      v ^v                   v

[D]
       F         D/F#      G         C7        F        Dm/Av      Bb v      Am
      |---1--1--|---2--2--|---------|---0--0--|---1-11--|---5-----|---6-----|---------|
      |---1--1--|---3--3--|0--1--3--|1--1--1--|---1-11--|---6--6--|---6--6--|5--5-55--|
      |---2--2--|---2--2--|0--0--0--|3--3--3--|---2--2--|--7---7--|--7---7--|5--5-55--|
      |---------|---------|---------|---------|---------|------7--|------8--|---7-77--|
      |---------|---------|---0--2--|3--------|---------|0--------|---------|---------|
      |1--------|2--------|3--------|---------|1--------|---------|6--------|5--------|
          v  v         v                v  v      v ^v         v         v      v ^v

       Bb v      Am        F         D/F#      G         C7        F         D/F#
      |---6--6--|---------|---1-11--|---2--2--|---------|---0--0--|---1-11--|---2--2--|
      |---6--6--|5--5--3--|1--1-11--|---3--3--|0--1--3--|1--1--1--|---1-21--|---3--3--|
      |--7------|5--5--3--|2--2-22--|---2--2--|0--0--0--|3--3--3--|---2--2--|---2--2--|
      |---------|---------|---------|---------|---------|---------|---------|---------|
      |---------|---------|---------|---------|---0--2--|3--------|---------|---------|
      |6--------|5-----3--|1--------|2--------|3--------|---------|1--------|2--------|
             v      v         v ^v         v                v  v      v ^v         v

       G         C7        F         D/F#      G         vC7
      |---------|---0-00--|---1-11--|---2-22--|---------|0--------||
      |0--1--3--|1--1-11--|---1-11--|---3-23--|0--1--3--|1--------||
      |0--0--0--|3--3--3--|---2--2--|---2--2--|0--0--0--|3--------||
      |---------|---------|---------|---------|---------|2--------||
      |---0--2--|3--------|---------|---------|---0--2--|3--------||
      |3--------|---------|1--------|2--------|3--------|---------||
                    v ^v      v ^v      v ^v

[Ending]
      Freely
      |  --6----  --6-----5-----3----||----1---------------------------||
      |  -------  -------------------||0h1---1-3-1---------------------||
      |3/7---7--3/7---7-5---5-3---3--||--------3-1-3-1-----------------||
      |  -------  -------------------||------------3-1-3-1-------------||
      |  -------  -------------------||----------------3-1-------------||
      |  -------  -------------------||------------------------1-------||


[Lyrics]
It's carbon and monoxide
The ol' Detroit perfume
It hangs on the highways in the mornin'
And it lays you down by noon

Oh, Papa Hobo
You can see that I'm dressed like a schoolboy
But I feel like a clown
It's a natural reaction I learned in this basketball town

Sweep up
I've been sweepin' up the tips I've made
I'm livin' on Gatorade
Plannin' my getaway

Detroit, Detroit got a hell of a hockey team
Got a left-handed way
Of makin' a man sign up on that automotive dream
Oh yeah, oh yeah

Oh, Papa, Papa Hobo
Could you slip me a ride?
Well, it's just after breakfast
I'm in the road and the weatherman lied
Tap to rate this tab
 
# A B C D E F G H I J K L M N O P Q R S T U V W X Y Z