Song name
# A B C D E F G H I J K L M N O P Q R S T U V W X Y Z

Paul Simon - Graceland tab

GRACELAND       -       Paul Simon


Intro:
E - 
F#m11/E -      E - F#m11/E - E -
F#m11/E - A - C#m - 
B - E  -


F#m11/E               E                                                
         The Missis -    sippi Delta 
                                  A      (A)                      
was shining like a National gui -    tar 
     C#m                                                         
I am       following the river, down the highway, 
                                B       (B)                       
through the cradle of the civil     war 


Chorus:
e|-----------/---------/------------/---------------/
B|2--2p0-----/0--------/------------/---0-----------/
G|2--2p0--1--/0---1----/1----1------/1--0----2-1----/
D|--------2--/----2----/2----2------/2-------4-2--4-/
A|-----------/----2----/2----2------/-------------6-/
E|-----------/---------/------------/-------------7-/
  I'm going to  Graceland, Graceland, In Memphis Tennessee

e|-----------/---------/----------/----4------2--/
B|2--2p0-----/0--------/----------/--5------3----/
G|2--2p0--1--/0---1----/1----1----/4------2------/
D|--------2--/----2----/2----2----/--------------/
A|-----------/----2----/2----2----/--------------/
E|-----------/---------/----------/--------------/
  I'm going to Graceland,

e|-----------/---------/------------/---------------/
B|2--2p0-----/0--------/------------/---0-----------/
G|2--2p0--1--/0---1----/1----1------/1--0----2-1----/
D|--------2--/----2----/2----2------/2-------4-2--4-/
A|-----------/----2----/2----2------/-------------6-/
E|-----------/---------/------------/-------------7-/
              Poor boys and Pilgrims with families and

e|-----------/---------/----------/----4------2--/
B|2--2p0-----/0--------/----------/--5------3----/
G|2--2p0--1--/0---1----/1----1----/4------2------/
D|--------2--/----2----/2----2----/--------------/
A|-----------/----2----/2----2----/--------------/
E|-----------/---------/----------/--------------/
  we are going to Graceland

e|-----------/---------/------------/---------------/
B|2--2p0-----/0--------/------------/---0-----------/
G|2--2p0--1--/0---1----/1----1------/1--0----2-1----/
D|--------2--/----2----/2----2------/2-------4-2--4-/
A|-----------/----2----/2----2------/-------------6-/
E|-----------/---------/------------/-------------7-/
         My traveling companion is nine years old

e|-----------/---------/----------/----4------2--/
B|2--2p0-----/0--------/----------/--5------3----/
G|2--2p0--1--/0---1----/1----1----/4------2------/
D|--------2--/----2----/2----2----/--------------/
A|-----------/----2----/2----2----/--------------/
E|-----------/---------/----------/--------------/
     He is the child of my first marriage

e|-----------/---------/------------/---------------/
B|2--2p0-----/0--------/------------/---0-----------/
G|2--2p0--1--/0---1----/1----1------/1--0----2-1----/
D|--------2--/----2----/2----2------/2-------4-2--4-/
A|-----------/----2----/2----2------/-------------6-/
E|-----------/---------/------------/-------------7-/
         But I've reason to believe we both will be received

e|-----------/---------/----------/----4------2--/
B|2--2p0-----/0--------/----------/--5------3----/
G|2--2p0--1--/0---1----/1----1----/4------2------/
D|--------2--/----2----/2----2----/--------------/
A|-----------/----2----/2----2----/--------------/
E|-----------/---------/----------/--------------/
     In Graceland

e|---------/
B|2--2p0---/
G|2--2p0--1/
D|--------2/
A|---------/
E|---------/


E                 F#m11/E         E                    (E) - F#m11/E                   
         She comes          back to    tell me she's gone 
   A                             (E)                        C#m     (C#m)  
As    if I didn't know that, - As    if I didn't know my own      bed 
   B                             (B)                         E      
As    if I'd never noticed, - The    way she brushed her hair    from her forehead

             (E)                                     A        (A)    
And she said    losing love is like a window in your    heart 
                      C#m              (C#m) - C#sus2                           
Everybody sees you're      blown apart 
                   B             (B)                              
Everybody sees the     wind blow 


Chorus:
e|-----------/---------/------------/---------------/
B|2--2p0-----/0--------/------------/---0-----------/
G|2--2p0--1--/0---1----/1----1------/1--0----2-1----/
D|--------2--/----2----/2----2------/2-------4-2--4-/
A|-----------/----2----/2----2------/-------------6-/
E|-----------/---------/------------/-------------7-/
  I'm going to  Graceland, Graceland, In Memphis Tennessee

e|-----------/---------/----------/----4------2--/
B|2--2p0-----/0--------/----------/--5------3----/
G|2--2p0--1--/0---1----/1----1----/4------2------/
D|--------2--/----2----/2----2----/--------------/
A|-----------/----2----/2----2----/--------------/
E|-----------/---------/----------/--------------/
  I'm going to Graceland,

e|-----------/---------/------------/---------------/
B|2--2p0-----/0--------/------------/---0-----------/
G|2--2p0--1--/0---1----/1----1------/1--0----2-1----/
D|--------2--/----2----/2----2------/2-------4-2--4-/
A|-----------/----2----/2----2------/-------------6-/
E|-----------/---------/------------/-------------7-/
              Poor boys and Pilgrims with families and

e|-----------/---------/----------/----4------2--/
B|2--2p0-----/0--------/----------/--5------3----/
G|2--2p0--1--/0---1----/1----1----/4------2------/
D|--------2--/----2----/2----2----/--------------/
A|-----------/----2----/2----2----/--------------/
E|-----------/---------/----------/--------------/
  we are going to Graceland

e|-----------/---------/------------/---------------/
B|2--2p0-----/0--------/------------/---0-----------/
G|2--2p0--1--/0---1----/1----1------/1--0----2-1----/
D|--------2--/----2----/2----2------/2-------4-2--4-/
A|-----------/----2----/2----2------/-------------6-/
E|-----------/---------/------------/-------------7-/
         And my traveling companions are ghosts and empty sockets

e|-----------/---------/----------/----4------2--/
B|2--2p0-----/0--------/----------/--5------3----/
G|2--2p0--1--/0---1----/1----1----/4------2------/
D|--------2--/----2----/2----2----/--------------/
A|-----------/----2----/2----2----/--------------/
E|-----------/---------/----------/--------------/
  I'm looking at ghosts and empties

e|-----------/---------/------------/---------------/
B|2--2p0-----/0--------/------------/---0-----------/
G|2--2p0--1--/0---1----/1----1------/1--0----2-1----/
D|--------2--/----2----/2----2------/2-------4-2--4-/
A|-----------/----2----/2----2------/-------------6-/
E|-----------/---------/------------/-------------7-/
         But I've reason to believe we both will be received

e|-----------/---------/----------/----4------2--/
B|2--2p0-----/0--------/----------/--5------3----/
G|2--2p0--1--/0---1----/1----1----/4------2------/
D|--------2--/----2----/2----2----/--------------/
A|-----------/----2----/2----2----/--------------/
E|-----------/---------/----------/--------------/
     In Graceland

e|---------/
B|2--2p0---/
G|2--2p0--1/
D|--------2/
A|---------/
E|---------/


E -     F#m11/E            E                                                   
                 There is a    girl in New York City, -
    (E)                                 A        (A)                 
Who    calls herself the human trampo -     line 
    C#m                                        (C#m)                  
And      sometimes when I'm falling, flying, or      tumbling in turmoil I say
B                                                              
   Wow, so this is what she means
                              E                                
She means we're bouncing into    Graceland

          (E)                                     A               
And I see    losing love is like a window in your    heart
                      C#m                (C#m) - C#sus2                           
Everybody sees you're       blown apart 
                    B                                          
Everybody feels the    wind blow, oooeeh


Chorus:
e|-----------/---------/------------/---------------/
B|2--2p0-----/0--------/------------/---0-----------/
G|2--2p0--1--/0---1----/1----1------/1--0----2-1----/
D|--------2--/----2----/2----2------/2-------4-2--4-/
A|-----------/----2----/2----2------/-------------6-/
E|-----------/---------/------------/-------------7-/
  In          Graceland, Graceland, 

e|-----------/---------/----------/----4------2--/
B|2--2p0-----/0--------/----------/--5------3----/
G|2--2p0--1--/0---1----/1----1----/4------2------/
D|--------2--/----2----/2----2----/--------------/
A|-----------/----2----/2----2----/--------------/
E|-----------/---------/----------/--------------/
  I'm going to Graceland,

e|-----------/---------/------------/---------------/
B|2--2p0-----/0--------/------------/---0-----------/
G|2--2p0--1--/0---1----/1----1------/1--0----2-1----/
D|--------2--/----2----/2----2------/2-------4-2--4-/
A|-----------/----2----/2----2------/-------------6-/
E|-----------/---------/------------/-------------7-/
  For reasons I cannot explain there's some part of me wants

e|-----------/---------/----------/----4------2--/
B|2--2p0-----/0--------/----------/--5------3----/
G|2--2p0--1--/0---1----/1----1----/4------2------/
D|--------2--/----2----/2----2----/--------------/
A|-----------/----2----/2----2----/--------------/
E|-----------/---------/----------/--------------/
   to see    Graceland

e|-----------/---------/------------/---------------/
B|2--2p0-----/0--------/------------/---0-----------/
G|2--2p0--1--/0---1----/1----1------/1--0----2-1----/
D|--------2--/----2----/2----2------/2-------4-2--4-/
A|-----------/----2----/2----2------/-------------6-/
E|-----------/---------/------------/-------------7-/
  And I may be obliged to defend every love, every ending

e|-----------/---------/----------/----4------2--/
B|2--2p0-----/0--------/----------/--5------3----/
G|2--2p0--1--/0---1----/1----1----/4------2------/
D|--------2--/----2----/2----2----/--------------/
A|-----------/----2----/2----2----/--------------/
E|-----------/---------/----------/--------------/
  Or maybe there's no obligations now

e|-----------/---------/------------/---------------/
B|2--2p0-----/0--------/------------/---0-----------/
G|2--2p0--1--/0---1----/1----1------/1--0----2-1----/
D|--------2--/----2----/2----2------/2-------4-2--4-/
A|-----------/----2----/2----2------/-------------6-/
E|-----------/---------/------------/-------------7-/
4      Maybe I've a reason to believe we all will be received

e|-----------/---------/----------/----4------2--/
B|2--2p0-----/0--------/----------/--5------3----/
G|2--2p0--1--/0---1----/1----1----/4------2------/
D|--------2--/----2----/2----2----/--------------/
A|-----------/----2----/2----2----/--------------/
E|-----------/---------/----------/--------------/
     In      Graceland

e|---------/
B|2--2p0---/
G|2--2p0--1/
D|--------2/
A|---------/
E|---------/


Outro:
E         A                                                      
   hoeoe -    oeoe - 
       C#m             B                                           
Oeoe -       oeoe -        oeoe, Whoow

e|-----------/---------/------------/---------------/
B|2--2p0-----/0--------/------------/---0-----------/
G|2--2p0--1--/0---1----/1----1------/1--0----2-1----/
D|--------2--/----2----/2----2------/2-------4-2--4-/
A|-----------/----2----/2----2------/-------------6-/
E|-----------/---------/------------/-------------7-/
  In          Graceland,   Graceland,     Graceland

e|-----------/---------/----------/----4------2--/
B|2--2p0-----/0--------/----------/--5------3----/
G|2--2p0--1--/0---1----/1----1----/4------2------/
D|--------2--/----2----/2----2----/--------------/
A|-----------/----2----/2----2----/--------------/
E|-----------/---------/----------/--------------/
  I'm going to  Graceland,    start fading 

e|-----------/---------/------------/---------------/
B|2--2p0-----/0--------/------------/---0-----------/
G|2--2p0--1--/0---1----/1----1------/1--0----2-1----/
D|--------2--/----2----/2----2------/2-------4-2--4-/
A|-----------/----2----/2----2------/-------------6-/
E|-----------/---------/------------/-------------7-/
              Mmm                  Mm         Mm

e|-----------/---------/----------/----4------2--/
B|2--2p0-----/0--------/----------/--5------3----/
G|2--2p0--1--/0---1----/1----1----/4------2------/
D|--------2--/----2----/2----2----/--------------/
A|-----------/----2----/2----2----/--------------/
E|-----------/---------/----------/--------------/
                                                  

e|-----------/---------/------------/---------------/
B|2--2p0-----/0--------/------------/---0-----------/
G|2--2p0--1--/0---1----/1----1------/1--0----2-1----/
D|--------2--/----2----/2----2------/2-------4-2--4-/
A|-----------/----2----/2----2------/-------------6-/
E|-----------/---------/------------/-------------7-/
              Mmm                  Mm         Mm
4             Mmm                  Mm         Mm

e|-----------/---------/----------/----4------2--/
B|2--2p0-----/0--------/----------/--5------3----/
G|2--2p0--1--/0---1----/1----1----/4------2------/
D|--------2--/----2----/2----2----/--------------/
A|-----------/----2----/2----2----/--------------/
E|-----------/---------/----------/--------------/
                                                  

e|-----------/---------/------------/---------------/
B|2--2p0-----/0--------/------------/---0-----------/
G|2--2p0--1--/0---1----/1----1------/1--0----2-1----/
D|--------2--/----2----/2----2------/2-------4-2--4-/
A|-----------/----2----/2----2------/-------------6-/
E|-----------/---------/------------/-------------7-/
              Mmm                  Mm         Mm

e|-----------/---------/----------/----4------2--/
B|2--2p0-----/0--------/----------/--5------3----/
G|2--2p0--1--/0---1----/1----1----/4------2------/
D|--------2--/----2----/2----2----/--------------/
A|-----------/----2----/2----2----/--------------/
E|-----------/---------/----------/--------------/
                                               //




E       022100
F#m11/E 022222
A       x02220
C#m     x4665x
B       x24432
C#sus2  x46644
Tap to rate this tab
# A B C D E F G H I J K L M N O P Q R S T U V W X Y Z