Song name
# A B C D E F G H I J K L M N O P Q R S T U V W X Y Z

Paul Simon - Diamonds On The Soles Of Her Shoes tab

---------------------------------------------------------------------------
	    Diamonds on the soles of her shoes - Paul Simon
---------------------------------------------------------------------------
Tabbed by:deHufter
Email:kurtkill@hotmail.com

Tuning:standard

Intro:
e|--------13p12\10---------------------------------------------------------|
B|------13--------13-10----------------------------------------------------|
G|----14---------------10-----/10------------------------------------------|
D|--15-------------------10---/12----10~-10--------------------------------|
A|-------------------------12-----13--------13-12-10-----------------------|
E|---------------------------------------------------13~-------------------|

Intro + verse:
e|-------------------------------------------------------------------------|
B|--10h11--10h11-10~-------------------------------------------------------|
G|--10h12--10h12-10~---------/10-------------------------------------------|
D|-------------------10-10---/12----10~-10---------------------------------|
A|-------------------------12----13--------13-12-10------------------------|
E|--------------------------------------------------13~--------------------|

Little thingy before trumpets:
e|--------13-13------------------------------------------------------------|
B|--10/13-13-13------------------------------------------------------------|
G|-------------------------------------------------------------------------|
D|-------------------------------------------------------------------------|
A|-------------------------------------------------------------------------|
E|-------------------------------------------------------------------------|

Tap to rate this tab
# A B C D E F G H I J K L M N O P Q R S T U V W X Y Z