Song name
# A B C D E F G H I J K L M N O P Q R S T U V W X Y Z

Paul Stanley - Live To Win tab

----------------------------------------------------------------------------
			  LIVE TO WIN - Paul Stanely
----------------------------------------------------------------------------
Tabbed by: 2uitargod4 (sam)
Email: sam.rocks.123@hotmail.com

Tuning: standard (EADGBe)

INTRO
e|--------------------------------------------------------------------------|
B|--------------------------------------------------------------------------|
G|-10-10-10-10-10-10-10/12-12-12-12-12-12-12-12-12-12-----------------------|
D|-x--x--x--x--x--x--x-/x--x--x--x--x--x--x--x--x--x------------------------|
A|-8--8--8--8--8--8--8-/10-10-10-10-10-10-10-10-10-10-----------------------|
E|--------------------------------------------------------------------------|

e|--------------------------------------------------------------------------|
B|--------------------------------------------------------------------------|
G|-10-10-10-13-13-13-13/17-17-17-17-17-17-17-17-----------------------------|
D|-x--x--x--x--x--x--x--x--x--x--x--x--x--x--x------------------------------|
A|-8--8--8--11-11-11-11/15-15-15-15-15-15-15-15-----------------------------|
E|--------------------------------------------------------------------------|

X2

VERSE
e|--------------------------------------------------------------------------|
B|--------------------------------------------------------------------------|
G|--------------------------------------------------------------------------|
D|-8-8-------------3-3----------5-5------6-6---3-3--------------------------|
A|-8-8-------------3-3----------3-3------4-4---1-1--------------------------|
E|-6-6-------------1-1------------------------------------------------------|
   "Frustrated"    "Degraded"

  PRE CHORUS
e|--------------------------------------------------------------------------|
B|--------------------------------------------------------------------------|
G|--------------------------------------------------------------------------|
D|--------------------------------------------------------------------------|
A|-------------------8-11-3--------------8-6-3--------8-6-10----------------|
E|-------------------6-9--1--------------6-4-1--------6-4-8-----------------|
   You ask me how i ....         You........

   another guitar does this vv
e|---------------------------------------------------------------------------|
B|---------------------------------------------------------------------------|
G|-17b18r17b18r17b18r17b18r17~-----------------------------------------------|
D|---------------------------------------------------------------------------|
A|-8-8-8-8-8-8-8-8-8\\\\\----------------------------------------------------|
E|-6-6-6-6-6-6-6-6-6\\\\\----------------------------------------------------|
   But the truth.......

   (8 times)
       v
e|--------------------------------------------------------------------------|
B|--------------------------------------------------------------------------|
G|-6-------8-------10------12-12-12-12-13---12---13-----15-----13-15--------|
D|-x--x8---x--x8---x---x8--x--x--x--x--x----x----x--x8--x---x6-x--x---------|
A|-4-------6-------8-------10-10-10-10-11---10---11-----13-----11-13--------|
E|--------------------------------------------------------------------------|
                                       LIVE TO
e|-----------------------|
B|-----------------------|
G|-17-----20-------------|
D|-x--x8--x--x8----------|
A|-15-----18-------------|
E|-----------------------|


 the next verse has a clean accoustic part in it
e|----3----4-------|
B|-----------------|
G|-----------------|
D|---5----5--------|
A|--3----3---------|
E|-3----3----------|

or something like that

the rest of the song is basically the same, except for a solo which isnt really much of 
solo and a few other parts that you may have to figure out  urselves , other than that 
fun
cheers


************************************

| /   slide up
| \   slide down
| h   hammer-on
| p   pull-off
| ~   vibrato
| +   harmonic
| x   Mute note
| b   Bend
| pb  Pre-bend
| br  Bend release
| pbr Pre-bend release
| brb Bend release bend

************************************
Tap to rate this tab
 
# A B C D E F G H I J K L M N O P Q R S T U V W X Y Z