Song name
# A B C D E F G H I J K L M N O P Q R S T U V W X Y Z

Paul Van Dyk - For An Angel tab

Listen to the song for the effect and timing of basic notes below;

Treb

e---------------------------------------------|
B-10--12--13--12--13--8--6--------------------|
G---------------------------7-----------------|
D---------------------------------------------|
A---------------------------------------------|
E---------------------------------------------|

Base

e---------------------------------------------|
B---------------------------------------------|
G---------------------------------------------|
D---------------------------------------------|
A---------------------(5)---------------------|
E-5--7--8--7--8--3--1-------------------------|

repeat as required

went to submit but dyego22 tab was present just 
think dyego left out the D at the end of the rift


Tap to rate this tab
 
# A B C D E F G H I J K L M N O P Q R S T U V W X Y Z