Song name
# A B C D E F G H I J K L M N O P Q R S T U V W X Y Z

Paul Weller - Porcelain Gods tab

---------------------------------------------------------------------
Porcelain Gods-Paul Weller
---------------------------------------------------------------------
Tabbed by: Louis p

Tuning: Normal 

e|-------------------------------------------------------------------|
B|-------------------------------------------------------------------|
G|-------------------------------------------------------------------|
D|-------------5-2---------------2h4----------5-2--------------------|
A|---2h4s52h4---------2h4s5-2h4--------2h4s5--------2h4s5-2v--------|
E|-0-----------------0----------------0------------0-----------------|

e|-------------------------------------------------------------------|
B|-------------------------------------------------------------------|
G|-------------------------------------------------------------------|
D|-------------5-2---------------2h4----------5-2--------------------|
A|---2h4s52h4---------2h4s5-2h4--------2h4s5--------2h4s5-2v--------|
E|-0-----------------0----------------0------------0-----------------|

e|-------------------------------------------------------------------|
B|-------------------------------------------------------------------|
G|-------------------------------------------------------------------|
D|----------7-5------------------------------------------------------|
A|---2h4s5------7-5--------------------------------------------------|
E|-0-----------------------------------------------------------------|

The chorus is loosely based around G A B and different arpeggios around them.



| /  slide up
| \  slide down
| h  hammer-on
| p  pull-off
| v  vibrato
| +  harmonic
| x  Mute note
==================================================================
Tap to rate this tab
 
# A B C D E F G H I J K L M N O P Q R S T U V W X Y Z