Song name
# A B C D E F G H I J K L M N O P Q R S T U V W X Y Z

Paul Weller - Come On Lets Go tab

Band : paul weller
Song : come on/lets go
tabbed by scully

intro and verses
  E5              C5
E-0-0-0-0-0-0-0-0-0-0-0-0-0-0-0-0------------|
B-0-0-0-0-0-0-0-0-0-0-0-0-0-0-0-0------------|
G-9-9-9-9-9-9-9-9-6-6-6-6-6-6-6-6------------|
D-9-9-9-9-9-9-9-9-6-6-6-6-6-6-6-6------------|
A-7-7-7-7-7-7-7-7-4-4-4-4-4-4-4-4------------|
E--------------------------------------------|

Chorus
  A               B               A               G#m
E-5-5-5-5-5-5-5-5-7-7-7-7-7-7-7-7-5-5-5-5-5-5-5-5-4-4-4-4-4-4-4-4-------|
B-5-5-5-5-5-5-5-5-7-7-7-7-7-7-7-7-5-5-5-5-5-5-5-5-4-4-4-4-4-4-4-4-------|
G-6-6-6-6-6-6-6-6-8-8-8-8-8-8-8-8-6-6-6-6-6-6-6-5-4-4-4-4-4-4-4-4-------|
D-7-7-7-7-7-7-7-7-9-9-9-9-9-9-9-9-7-7-7-7-7-7-7-7-6-6-6-6-6-6-6-6-------|
A-7-7-7-7-7-7-7-7-9-9-9-9-9-9-9-9-7-7-7-7-7-7-7-7-6-6-6-6-6-6-6-6-------|
E-5-5-5-5-5-5-5-5-7-7-7-7-7-7-7-7-5-5-5-5-5-5-5-5-4-4-4-4-4-4-4-4-------|

Solo
e---------------------------------------------------|
B---------------------------------------------------|
G------9---------9----------------------------------| play twice
D-9-11---11-9-11---11-9-11------9---------9---------|
A--------------------------9-11---11-9-11---11-9-11-|
E---------------------------------------------------|
Tap to rate this tab
 
# A B C D E F G H I J K L M N O P Q R S T U V W X Y Z