Song name
# A B C D E F G H I J K L M N O P Q R S T U V W X Y Z

Paul Weller - Changing Man tab

e|-----------------------------------------------------------------------------------|
B|---------1-----------1------1-----------1--------1-------1-------------------------|
G|------0-----------0------------------0--------0------------------------------------|
D|-----------------------------------------------------------------------------------|
A|---3----------3----------3--------1--------1--------1------------------------------|
E|-----------------------------------------------------------------------------------|

e|----------------------------------------------------------------------------------|
B|-----------1---------1--------1----------1--------1-------------------------------|
G|--------1---------1-------------------1--------1----------------------------------|
D|----------------------------------------------------------------------------------|
A|-----0---------0--------0---------------------------------------------------------|
E|-----------------------------------4--------4-------------------------------------|
Tap to rate this tab
 
# A B C D E F G H I J K L M N O P Q R S T U V W X Y Z