Song name
# A B C D E F G H I J K L M N O P Q R S T U V W X Y Z

Paul Weller - Thinking Of You tab

Paul Weller - Thinking of you
-----------------------------
tabbed by vincent

Capo 2nd fret.


Verse / Chorus:

e---5-5---0-0-0-0---0-0-1-1-1-1---0-0-0-0--|
B---5-5---0-0-0-0---0-0-1-1-1-1---0-0-0-0--|
G---5-5---0-0-0-0---0-0-2-2-2-2---0-0-0-0--|
D---3-3---2-2-2-2---2-2-3-3-3-3---2-2-2-2--|
A---3-3---3-3-3-3---3-3-0-0-0-0---3-3-3-3--|
E---3-3------------------------------------|


Little bridge:

e--1---1-1---0---0-0---0-0-0-0-0-0--|
B--1---1-1---0---0-0---1-1-1-1-1-1--|
G--2---2-2---0---0-0---0-0-0-0-0-0--|
D--3---3-3---2---2-2---2-2-2-2-2-2--|
A--0---0-0---3---3-3---3-3-3-3-3-3--|
E----------------------0-0-0-0-0-0--|

listen to the song for the rhythm. 
my first tab, but the chords sound good ;)
Tap to rate this tab
# A B C D E F G H I J K L M N O P Q R S T U V W X Y Z