Guitaretab - guitar tabs
Song name
# A B C D E F G H I J K L M N O P Q R S T U V W X Y Z

Paul Weller - Savages chords

Highlighted       Show chord diagrams
---------------------------------------------------------------------------
			     SAVAGES  Paul Weller
---------------------------------------------------------------------------
Tabbed by: Mod73

Tuning: EADGBE

Intro:

e|----0------0------0------------------------------------------------------|
B|----3------2------1------------------------------------------------------|
G|----0X8---0X8---0-X8---------------------------------------------------|
D|----3------2------1------------------------------------------------------|
A|----0------0------0------------------------------------------------------|
E|----0------0------0------------------------------------------------------|

Finish intro with G, then F, C in quick succession.


Main bit:

Verse:
[ Tab from: http://www.guitaretab.com/p/paul-weller/187160.html ]
     G         Am
You're savages, he knows you are
C              Am        G
do you not think that god is looking down?
                      Am               C
On you savages, the children run, to mothers
          Am              G
you put bullets in their backs
                 Am
ah cowards, can you not see
C                      Am            Em
do you not think that love is coming down?

Chorus:

Em                          Am
you have no gods, they have all disowned you,
Em                          Am
you have no love, so you take it out on,
C
people's lives in progress,
Am                                       G
that's what keeps you going when you're savages

G,Am,C,Am,G

(Same chords used over again)

Verse:

savages, you can dress it up,
give it a name and a fancy uniform
and a flag to fly to hide behind,
can you not see the truth that's on the ground

Chorus:

you have no love,
it has all gone cold on you,
you never have, so you take it out on
those whose love is growing,
that's what you hate most, when you're savages

do you not see the love is coming down?


Thats it until next time. FIRE AND SKILL
Related for Savages chords