Song name
# A B C D E F G H I J K L M N O P Q R S T U V W X Y Z

Paul Weller - You Do Something To Me Acoustic chords

Highlighted       Show chord diagrams
PAUL WELLER YOU DO SOMETHING TO ME


chords: em   022000
        D      0232
        AM7  X02010
        BM   X24432
        G/C7 3X2310
        d/C? XX0010
        C7   X32310
        G    320003
        A7   X02020
        D7   XX0212
intro

e|------0-----------------------------------------------------------| 4x
B|------0-------------0---------------------------------------------|
G|------0---------------0-------------------------------------------|
D|------2-------2S4------4------------------------------------------|
A|------2-----------------------------------------------------------|
E|----0---------------------0---------------------------------------|

this a just before the c7 an couple other times just listen to the song


e|--------------------------------0-------------------------------------------------|
B|--------------------------------1-------------------------------------------------|
G|--------------------------------3-------------------------------------------------|
D|-----9-------7-----5------4-----2-------------------------------------------------|
A|-----0-------0-----0------0-----3-------------------------------------------------|
E|--------------------------------x-------------------------------------------------|


Em		        D     AM7	 BM          Em
You do something to me       something deep inside
			D     AM7         BM          Em
Im hanging on the wire  for a love Ill never find
			D     AM7         BM          Em
You do something wonderful  then chase it all away
		  D	AM7              BM	 Em
Mixing my emotions     that throws me back again

Em		 G/C7          AM7        d/C?          Em
Hanging on the wire,       Im waiting for the change
C7			   G		A7
Im dancing through the fire just to catch a flame
  C   d/C?          D7
And feel real again


Solo : Em	D	AM7	Bm7	Em x2


		 G/C7	AM7		d/C?		Em
Hanging on the wire yeh , Well Im waiting for the change
	  C7			G		     A7
Oh Im dancing through the fire just to catch a flame
     C    d/C?      D7
And feel real again


You do something to me  somewhere deep inside
Hoping to get close to you  a peace I can not find
Dancing through the fire     just to catch a flame
Just to get close to you, just close enough 
To tell you that.

You do something to me  something deep inside

Out : Em x4
my 1st tab so dont be 2 harsh think its near perfect
Tap to rate this tab
# A B C D E F G H I J K L M N O P Q R S T U V W X Y Z