Song name
# A B C D E F G H I J K L M N O P Q R S T U V W X Y Z

Paul Weller - Wild Wood Acoustic tab

chords:
Bm     224432
Gbm/B  224222
Em     779987
Gm6    X7878X

a couple of wee riffs sometime between verses:

e|--------------------------------------------------------------------------|
B|--------------------------------------------------------------------------|
G|---------2----------------------------------------------------------------|
D|-----2h4------------------------------------------------------------------|
A|--------------------------------------------------------------------------|
E|--------------------------------------------------------------------------|

e|-7/9-7--------------------------------------------------------------------|
B|-------9------------------------------------------------------------------|
G|--------------------------------------------------------------------------|
D|--------------------------------------------------------------------------|
A|--------------------------------------------------------------------------|
E|--------------------------------------------------------------------------|

-sometimes there is harmonic notes played on high e, B and D on the 12 fret

solo bit:

e|--------------------------------------------------------------------------|
B|--------------------------------------------------------------------------|
G|------------------------------------------9-7-----------------------------|
D|--------------------7-7------------------------9--------------------------|
A|-7h9-7h9-5-7/9-7h9------7-5-7-7-5-7/9-9-----------------------------------|
E|--------------------------------------------------------------------------|

Bm, Gbm/B, Em, Gm6          

Bm          Gbm/B
High tide mid afternoon
Em        Gm6          Bm
People fly by in the traffics boom
Bm          Gbm/B 
Knowing just where you're blowing
Em          Gm6                 Bm
Getting to where you should be going.

Bm           Gbm/B  
Don't let them get you down
Em      Gm6              Bm
Making you feel guilty about
Bm                        Gbm/B 
Golden rain will bring you riches
Em             Gm6               Bm
All the good things - you deserve now. (Right now)

(solo bit)

Bm                Gbm/B 
Climbing forever trying
Em         Gm6            Bm
Find your way out of the wild wild wood
Bm              Gbm/B
Now theres no justice
Em          Gm6                     Bm
You've only yourself that you can trust in

Bm                Gbm/B 
And I said high tide mid afternoon
Em     Gm6              Bm
People fly by in the traffics boom
Bm                       Gbm/B 
Knowing just where you're blowing
Em          Gm6               Bm
Getting to where you should be going.

(solo bit)

Bm          Gbm/B 
Day by day your world fades away
Em          Gm6          Bm
Waiting to feel all the dreams that say
Bm                 Gbm/B 
Golden rain will bring you riches
Em            Gm6                       Bm
All the good things you deserve now and I say

Bm        Gbm/B 
Climbing forever trying
Em      Gm6              Bm
You're gonna Find your way out of the wild wild wood
Bm                      Gbm/B         Em          Gm6               Bm
Said you're gonna find you're way out of the wild wild wood.
Tap to rate this tab
 
# A B C D E F G H I J K L M N O P Q R S T U V W X Y Z