Song name
# A B C D E F G H I J K L M N O P Q R S T U V W X Y Z

Paul Weller - Brand New Start tab

-------------------------------------------------------------------------------
                             BRAND NEW START (INTRO)- Paul Weller
-------------------------------------------------------------------------------
 

INTRO

  G         D6        Em        Em   F#m5
e|---------|-----2---|-----0---|---------|
B|-----0---|-------0-|-------0-|---0-----|
G|---0---0-|---2-----|---0-----|---0---0-|
D|---------|-0-------|---------|---2---0-|
A|---------|---------|0h2------|---2---0-|
E|-3-------|---------|---------|-0---2---|



Short Guide for the rest of the song:

Variation for the VERSE (2nd half)

  G         D         Em        Em   F#m5
e|-----3---|-----2---|-----0---|---------|
B|---------|---------|-------0-|---0-----|
G|---0---0-|---2---2-|---0-----|---0---0-|
D|---------|-0-------|---------|---2---0-|
A|---------|---------|0h2------|---2---0-|
E|-3-------|---------|---------|-0---2---|


- Strum a C-Chord for the end of every verse
- Bridge to Solo: D C D C D C 
- Solo: 1st Guitar = Intro + Verse-Variation
Tap to rate this tab
# A B C D E F G H I J K L M N O P Q R S T U V W X Y Z