Song name
# A B C D E F G H I J K L M N O P Q R S T U V W X Y Z

Paul Weller - Wishing On A Star tab

Tabbed by: Pagey
Email:pwmills@dsl.pipex.com

Tuning:

e|-------------------------------------------------------------------------|
B|----------3--6--3--3--1--3--------------2b4------------------------------|
G|---2h3----------------------------2-3----------3p2--2-5------------------|
D|-------------------------------------------------------------------------|
A|-------------------------------------------------------------------------|
E|-------------------------------------------------------------------------|

e|-------------------------------------------------------------------------|
B|---1/8--8-8-8-10-11-13-15-15-15--14-15-14-12-14-15-14-12-----------------|
G|-------------------------------------------------------------------------|
D|-------------------------------------------------------------------------|
A|-------------------------------------------------------------------------|
E|-------------------------------------------------------------------------|

e|-------------------------------------------------------------------------|
B|---14-15-14-12-14-15-16-17-----------------------------------------------|
G|-------------------------------------------------------------------------|
D|-------------------------------------------------------------------------|
A|-------------------------------------------------------------------------|
E|-------------------------------------------------------------------------|
Tap to rate this tab
# A B C D E F G H I J K L M N O P Q R S T U V W X Y Z