Guitaretab - guitar tabs
Song name
# A B C D E F G H I J K L M N O P Q R S T U V W X Y Z

Paul Weller - Brand New Start tab

+ --------------------------------------------------------------------- +
| Ultimate Guitar Tabs Archive - your #1 source for tabs!               |
| http://www.ultimate-guitar.com/                                       |
|                                                                       |
| Over 200,000 guitar, guitar pro and bass tabs! Also lessons, news,    |
| columns and guitar forums!                                            |
+ --------------------------------------------------------------------- +

Artist: Paul Weller
Song: Brand New Start
By N Ramsay:nramsay_6@hotmail.com
Chords: G D Em and C which is played at the end of each verse

Intro:

 G            D         Em                  C
e----2----------2----------0------0-------------0-----0----------------I
B------2----------3----------0------0---0---------1-----1--------------I
G--------0----------2----------0------0-------------0-----0------------I
D-------------0--------------------------------------------------------I
A-----------------------2---------------------3------------------------I
E-3--------------------------------------------------------------------I
Play the intro a few times, listen to the song to know when to start strumming 

Solo:
[ Tab from: http://www.guitaretab.com/p/paul-weller/56504.html ]
e---------------------------------------------------------------------I
B--12-12-12-12-15-15b-12-----12-12-12-12-15-15b-17-12-----------------I
G---------------------------------------------------------------------I
D---------------------------------------------------------------------I
A---------------------------------------------------------------------I
E---------------------------------------------------------------------I

e---------------------------------------------------------------------I
B--12-12-12-12-10--8-10-8-----12-12-12-12-15-7-8----------------------I
G-------------------------9-------------------------------------------I
D---------------------------------------------------------------------I
A---------------------------------------------------------------------I
E---------------------------------------------------------------------I

Bits of the solo are played throughout the song
Please rate this tab cause it is my first, enjoy!

END

+--------------------------------------------------------------------------+
| This file is the author's own work and represents their interpretation   |
| of the song. You may only use this file for private study, scholarship,  |
| or research.                                                             |
+--------------------------------------------------------------------------+

Ultimate-Guitar.Com  2007
Related for Brand New Start tab