Song name
# A B C D E F G H I J K L M N O P Q R S T U V W X Y Z

Paul Weller - Clues tab

Help us improve GuitareTab! Take a short survey!
Intro/ Main Riff:

E--------0-----0-----0------------0----------------------------------|
B------3---3-----3-----3--------3---3---3----------------------------|
G----2-------2-----2----------2-------2-------0-----0----------------|
D--0------------------------0---------------0-----0------------------|
A-------------------------0---------------3-----2--------------------|
E------------------------------------------------------3-------------|

E--------0-----0-----0------------0----------------------------------|
B------3---3-----3-----3--------3---3---3----------------------------|
G----2-------2-----2----------2-------2-------0-----0----------------|
D--0------------------------0---------------0-----0------------------|
A-------------------------3---------------3-----2--------------------|
E------------------------------------------------------3-------------|

E--------0-----0-----0---------2-2-2---------------------------------|
B------3---3-----3-----3---3---0-0-0---------------------------------|
G----2-------2-----2-----2-----0-0-0---------------------------------|
D--0---------------------------2-2-2---------------------------------|
A--------------------------------------------------------------------|
E--------------------------------------------------------------------|
Related for Clues tab