Song name
# A B C D E F G H I J K L M N O P Q R S T U V W X Y Z

Paul Weller - Moon On Your Pyjamas tab

Paul Weller
Moon On Your Pyjamas
Wild Wood

This is a great song to chill out or jam with,

If you listen to the song you'll find it is easy to pick up, I hope you find this 
and please rate this tab

This is the main riff

E-0---0--------5--2----------------5/7-5---------5/7-7-5--0---------------|
B-2------0-----4--2----2-5-5/7~-----------7~-----5/7-7-5--2---------------|
G-2------------4--2---------------------------------------2---------------|
D-2---------------4---------------------------------------2---------------|
A-0-------------------------------------------------------0---------------|
E-------------------------------------------------------------------------|


The chords are just A and D
E-0------2----------|
B-2------3----------|
G-2------2----------|
D-2------0----------|
A-0------0----------|
E-------------------|

This is the other bit - "So that you will get the chance to say..."
E-------------------------0------2------4------2------------------|
B-------------------------2------3------5------3------------------|
G-------------------------2------4------6------4------------------|
D-------------------------2------4------6------4------------------|
A-------------------------0------2------4------2------------------|
E-----------------------------------------------------------------|

 "That you have seen a better day"

E-0------2------4------4------2-2-2-2-2-2-2-----------------------|
B-2------3------5------5------3-3-3-3-3-3-3-----------------------|
G-2------4------6------6------2-2-2-2-2-2-2-----------------------|
D-2------4------6------6------0-0-0-0-0-0-0-----------------------|
A-0------2------4------4------0-0-0-0-0-0-0-----------------------|
E-----------------------------------------------------------------|
Tap to rate this tab
# A B C D E F G H I J K L M N O P Q R S T U V W X Y Z