Guitaretab - guitar tabs
Song name
# A B C D E F G H I J K L M N O P Q R S T U V W X Y Z

Paul Weller - Come Onlets Go tab

Highlighted       Show chord diagrams
Come on/Lets go

by Paul Weller

Chords for opening riff:


  EADGBE               EADGBE               EADGBE
  079900               x46600               x24400

    E                    Db                   B

E                                         Db       Db 
- B B
You have never been there........

E                                         Db       Db 
- B B
Nothing else matters.........

E                                         Db       Db 
- B B
Hanging round the corner........

E                                         Db       Db 
- B B
Sing you little.............


        A                B
I believe......, We are............

        A                Abm - Abm7
And I feel....., And it............

E, Db, B riff X2 for second verse
Then repeat A, B, A, Abm, Abm7


E, Db, B riff X2 then:


E:------------------------------------------------------------|
B:------------------------------------------------------------|
G:------------------9-----------------------------------------|
D:--9----11-11----------11--------9------11-11------9-11-9-11-|
A:  (Play open & let ring)
E:-----------------------------------------------------------
[ Tab from: http://www.guitaretab.com/p/paul-weller/78226.html ]
E:------------------------------------------------------------|
B:------------------------------------------------------------|
G:------------------------------------------------------------|
D:------------------9---------------------------------------9-|
A:--9----11-11----------11--------9------11-11-------9--11----|
E:  (Play open & let ring)


Play this instrumental once then twice over lyrics:


A               E               A                 E
Come on, Baby....     Yeah come on, Baby........

                B               A                 Abm
But you say.....,   I say........,    I just........,

                A               B                 Dbm
And you.........,   Then I.......,    And...........,

                Abm - Abm7
And it gets..........


E                                         Db       Db 
- B B
Been planting up the..............

E                                         Db       Db 
- B B
Been planting up the..............

A                E                A                    E
Come on,........,       Yeah come on, Baby letís go

                 A                      E
But you say where to, I say I donít know.

End Riff:

B:10-10-10-10-10-9  10--10-10-10-10-9  10--10-10-10-10-9--12-12-10-9-|
G:11-11-11-11-11-9  11--11-11-11-11-9  11--11-11-11-11-9--13-13-11-9-|

B:10-10-10-10-10-9  10--10-10-10-10-9-|
G:11-11-11-11-11-9  11--11-11-11-11-9-|
Related for Come Onlets Go tab