Song name
# A B C D E F G H I J K L M N O P Q R S T U V W X Y Z

Paul Weller - Peacock Suit tab

Help us improve GuitareTab! Take a short survey!
Title: Peacock Suit
Artist: Paul Weller
Tabbed by: INDIE NATION 
Tunning: standard


Intro:
|-------------------------1-------------1-----------------------|
|---------------------------1-------------1---------------------|
|-------0---------------------0----0--------0---0---------------|
|---------3-----------------------------------------------------|
|--3/5------5--1----------------------------------5--1----------|
|----------------3--1--3---------3----3----------------3--1--3--|
 
Verse 1 and 2 uses many variations on one main riff:
|--1---------------------------|
|-----1------------------------|
|--------0----------0----------|
|------------------------------|
|------------------------------|
|----------------3-------3-----|
All the notes used in this section are from a G7sus4 chord shape
so just play loosely around this riff and you should come close.
 
Chorus:
|----2-----2------------------2------2------3-------------1-----|
|----1-----1-----3-----3------1------1---------3------------1---|
|----2-----2-----3-----3------2------2------------------------0-|
|-0-----0------------------0------0-----------------------------|
|-------------3-----3--------------------3-------3--1-----------|
|------------------------------------------------------3--------|
After this the riff continues as before. Make sure the chords in
this section do not ring on. The base notes are palm muted but
you don't have to do this if you don't want.
 
For the middle section play a D chord followed by a Dsus4.
There's a load of stuff going on here and I can't work any of
it out so I usually just pick randomly around the chords.
 
Solo:
|---------------------------------------------------------------|
|--13(bu)----13--10---------------------------------------------|
|-------------------------13--12--10--12(bu)-----12(bu)--12(bu)-|
|---------------------------------------------------------------|
|---------------------------------------------------------------|
|---------------------------------------------------------------|

|--------------------------------10-----------------------------|
|--------------------------8/10-------13--12--10----------------|
|--12(bu)-p-10-----------------------------------13--12--10-----|
|-------------------12--------------------------------------12--|
|---------------------------------------------------------------|
|---------------------------------------------------------------|

|------------10------12/14-----------|
|--10/12---------------------15------|
|------------------------------------|
|------------------------------------|
|------------------------------------|
|------------------------------------|
 
Verse 3:
|------------------------------|
|--8--8--6--5------------------|
|--7--7--7--7---7--7--5--7-----|
|---------------5--5--5--5-----|
|------------------------------|
|------------------------------|               
This is another riff but this one is only played in verse 3.
 
Outro:
|-----------------------|-------------------------|
|-----------------------|-------------------------|
|-----------------------|-------------------------|
|------3--1-------------|--------7--5-------------|
|------------1--2--3----|---------------1--2--3---|
|-1-1-------------------|--1--1-------------------|                
The outro uses a combination of these two riffs.
Related for Peacock Suit tab