Song name
# A B C D E F G H I J K L M N O P Q R S T U V W X Y Z

Paul Weller - Everything Has A Price To Pay Live tab

Artist: Paul Weller
Song: EVERTHING HAS A PRICE TO PAY(LIVE)
Album: Days of Speed
Tunning: Standard
Tabbed By: INDIE NATION


This sounds best acoustic
Intro:
e--3h5---5vvvv---8--10--10b---3h5--0-----------|
b-----5--------------------------5---7h8--7----|
G----------------------------------------------|
D----------------------------------------------|
A----------------------------------------------|
E----------------------------------------------|

e----------------------------------------------|
b----------------------1-1-------1-------------|
G--9/7--5h7-2-0--0h2-2----2-0---0--------------|
D----------------------------0h2---2p0---------|
A-------------------------------------3p2-0----|
E----------------------------------------------|

e-----------------------------------------------|
b---1-----------1---3-----1---------1-----------|
G--2-2--2-0----0----2----2-2-2-0---0------------|
D-----------0h2---0-------------0h2---2p0-------|
A-----------------------0-----------------3p2-0-|
E-----------------------------------------------|

1st verse:
Am       c    D         Am
Here's a tune i've been writing
    e-----------------|
    b------1----------|
    G-----0-----------|  (Riff 1)
    D--0h2--2p0-------|
    A----------3p0-0--|
    E-----------------|

Am        C       D      Am
It's been so long in the making
    e-----------------|
    b------1--3-------|
    G-----0---2-------|  (Riff 2)
    D--0h2--0---------|
    A-----------------|
    E-----------------|

Am    C     D       Am     (Riff 1)
I hope its worth all the waiting
then strum: F,C,E

repeat the above verse for the next part and all other verses

Chorus: Am, Dsus4, Am, Dsus4, E(alternating 022100 and 022103)

Repeat intro, verse, chorus then strum: Am, c, D, Am, C, G
and play both riffs 1 and 2 alternately and repeat the first verse
and chorus.

Finally, play: Am, C, D, Am, C, G
and end on: Am, C, G, Am
Tap to rate this tab
# A B C D E F G H I J K L M N O P Q R S T U V W X Y Z