Song name
# A B C D E F G H I J K L M N O P Q R S T U V W X Y Z

Paul Weller - Hes The Keeper tab

Artist: Paul Weller
Song: He's The Keeper
Tunning: Standard
Tabbed By: INDIE NATION


Electric guitar chords:

F#m(7):   2 4 2 2 2 2
B7:       x 2 4 2 4 2
E:        x x 6 4 5 4
Eaug:     x x 6 5 5 4
B7*:      7 9 7 8 10 7
E*:       x 7 9 9 9 x
D:        x 5 7 7 7 x
A:        5 7 7 6 5 5
G:        3 x 0 0 3 3
Bm:       x 2 4 4 3 2
E(type3): 0 2 2 1 0 0
C#7:      x 4 6 4 6 4
A*:       x 0 2 2 2 0

verse:
         F#m7
He's the keeper
       B7
Of the lantern
      F#m7
Stone believer -                 E           Eaug
       E      Eaug ---->     E --4--4--5--4--4--|
It's a passion               B --5-----------5--|
       F#m7                  G --4-----------5--|
And he knows it              D --6-----------6--|
         B7
He's the keeper
        F#m7
Hanging wishes -
            E*
Up upon our stars
      D         A            A --4--5--7-----|
As he waits for love-        E -----------5--|
E*     D         A
Yes he waits for love.

Chorus:
G
Flying without a hand
Bm
Trying to brave the land
G
Something about the man -
E(type3)
Is about to make a stand!
G
With nothing but liars and thieves
Bm
Trying to purchase thee,
G
Where are you meant to go -
    E*         C#7
But fly away - high away.

Verse: same chord sequence

He's the one knight
On a knackered stallion
His rusty armour -
So undervalued,
Does he know that
He's a reason,
He's asleep now
But never gone,
As he waits for love,
Yes he waits for love -

G A* G A*

         F#m7
He's the keeper

Solo:
            B7                      F#m7
----------------------------------------------------------------------------|
-----10-12--12b-12b-12b-------10-12-10--------------------------------------|
--11-----------------------11----------11-10-11--------9-9------------------|
--------------------------------------------------9h11------11p10p9p0-------|
----------------------------------------------------------------------------|
----------------------------------------------------------------------------|

  E             Eaug  F#m7          B7                      F#m7
----------------------------------------------------------------5-----------|
-----------------------------------------------------5--7\5-5/7------7b--5--|
-----------------------------------------------4/6-6------------------------|
--7--9-9--7--9--10----10p9p0------7-----7-----------------------------------|
-----------------------------9------7-9---9---------------------------------|
----------------------------------------------------------------------------|

    E      D     A                          E         D             A
--------------12---------12-------------------------------------------------|
--5/12--12-13----14--13^----13\10--10-12-10-12----13b-13b--10h12-10-10------|
----------------------------------------------------------------------------|
----------------------------------------------------------------------------|
----------------------------------------------------------------------------|
----------------------------------------------------------------------------|
Tap to rate this tab
# A B C D E F G H I J K L M N O P Q R S T U V W X Y Z