Song name
# A B C D E F G H I J K L M N O P Q R S T U V W X Y Z

Paul Wilbur - Why Should I Be Afraid tab

Hey guys,I made this tab by ear and this is the intro of the song called Why
should I be afraid by Paul Wilbur.For the rest of the songs you all can play the
chords.Hope you all like it!

E|----------------------------------------------------|
B|-------6---6---6--8--4--4--4--3------------3--------|
G|-5p7-7---7---7-------------------5--5--5------------|
D|----------------------------------------------------|
A|----------------------------------------------------|
E|----------------------------------------------------|


E|---------------------------------------------------|
B|-------6---6---6--8--4--4--4--3--------------------|
G|-5p7-7---7---7------------------5------------------|
D|---------------------------------------------------|
A|---------------------------------------------------|
E|---------------------------------------------------|

E|----------------------------------------------------|
B|-------6---6---6--8--4--4--4--3------------3--------|
G|-5p7-7---7---7-------------------5--5--5------------|
D|----------------------------------------------------|
A|----------------------------------------------------|
E|----------------------------------------------------|

E|---------------------------------------------------|
B|-------6---6---6--8--4-----------------------------|
G|-5p7-7---7---7-------------------------------------|
D|---------------------------------------------------|
A|---------------------------------------------------|
E|---------------------------------------------------|
Tap to rate this tab
# A B C D E F G H I J K L M N O P Q R S T U V W X Y Z