Paul Williams - I Wont Last The Day Without You tab

Intro:
E--------2p0---2-----0----------------5--------------------|
B-----------2--2---2---2\-slide--7------7---------7------7-|
G---1--------1-1-1-----1\--------6--6-----6-----6----------|
D-2----2-------2-------2\--------7------------7-------7----|
A--------------0-----------------5----------5-------5------|
E----------------------------------------------------------|

E-----------------------------------5----5----7h5---------|
B-14-----------14-----------------7---7----7------7-------|
G-13--13-------13-13------------6------6-----6------6-----|
D-14-----14----------14-------7-----------------------7---|
A-12--------12----------12--5---------------------------5-|
E---------------------------------------------------------|

i use  AM7 and DM7 on verses and chorus
Tap to rate this tab
 
# A B C D E F G H I J K L M N O P Q R S T U V W X Y Z