Song name
# A B C D E F G H I J K L M N O P Q R S T U V W X Y Z

Paul Williams - Life At Last tab

Life at last
Paul Williams

Tab by ForestEnt


Same riff played throughout :

          Bbm
----------------|
----------------|
----------------|
--3--------3----|
--1--0--4--1----|
----------------|



             riff
Life at last.     Salutations from the other side.

riff                                            riff
      I can see that you're the devil's pride.

                          Bbm          Bbm/A
      Do you realize that all of you donated something
------------------------------------------------------|
------------------------------------------------------|
---------------------------3-------------3------------|
---------------------------3-------------3------------|
---------------------------1-------------0------------|
------------------------------------------------------|

  Fm/Ab         Bbm/G        Gb
  horrible you hated that is part of you ?
--------------------------------------------------------|
--------------------------------------------------------|
--------------------------------------------------------|
----3-------------5----------4--------------------------|
----3-------------4----------4--------------------------|
----4-------------3----------2--------2-----2------2----|


             F                                     Bbm
  I'm your nightmares comin' true I am your crime.
--------------------------------------------------------|
--------------------------------------------------------|
-----------------------------------------------------3--|
-------------3---------------------------------------3--|
-------------3---------------------------------------1--|
-------------1------------------------------------------|

riff riff               riff
           Life at last     sit and listen while the fun begins
riff
     Hearts are broken and the bad guys win

riff                        Bbm           /A
     Sit and listen all the cutting up is easy

        Fm/Ab          Bbm /G         Gb
and this isn't for the queasy or the weak of heart.

         F                                              Bbm
You had better start for home while there's still time

riff riff Bbm                  /A           Fm/Ab
             I'm the evil that you created

                  Bbm/G                Gb
gettin' horny and damned frustrated

                   F              Bbm   F    Bbm    F
bored stiff and I want me a woman no.......o........w



(bridge solo while, in the movie, the singer wags his tail)

 Bbm                                Db
-----------------------------------------------------------|
------------------------------------------------------9-11-|
-------------6---6-8-10-10-8-6---6--8-10-8-6---6-8-10------|
---8-6-8-6-8---8---------------8-------------8-------------|
-----------------------------------------------------------|
-----------------------------------------------------------|

 Eb                       F                     Bbm
---------------9----9-11-13-13-11-9----9-13-13-11-9----9-11--|
-11-9-11-9-11----11-----------------11--------------11-------|
-------------------------------------------------------------|
-------------------------------------------------------------|
-------------------------------------------------------------|
-------------------------------------------------------------|

        F
-13-11-13-11-13-13-13-13-13-13-13-13-13-----|etc
--------------------------------------------|
--------------------------------------------|
--------------------------------------------|
--------------------------------------------|
--------------------------------------------|

  Bbm                                     Ebm    F
------------------------------------------------------17---|
--11-------13-14-11-----13-14-11----13-14-16-----18--------|
-----------------------------------------------------------|
-----------------------------------------------------------|
-----------------------------------------------------------|
-----------------------------------------------------------|



Bbm                   /A           Fm/Ab
    I'm the evil that you created

                   Bbm/G
gettin' horny and damned frustrated.

 Gb              Ebm
Each of you must stop and try me.

 Em
All of you might satisfy me.

  B
Aaaargh   (the singer is electrocuted)
  Ab
aaaaargh  (good rid)
  F
aaaargh.  (now let the girl sing)
Tap to rate this tab
# A B C D E F G H I J K L M N O P Q R S T U V W X Y Z