Song name
# A B C D E F G H I J K L M N O P Q R S T U V W X Y Z

Paul Williams - The Hell Of It tab

The hell of it
by Paul Williams

Tab by ForestEnt
Standard tuning
some dist helps


 Em       C    Em         C  B
-----------------------------------|
-----------------------------------|
-----------------------------------|
-2---4-5-10-----2---4-5--10--9-----|
-2---4-5-10-----2---4-5--10--9-----|
-0---2-3--8-----0---2-3---8--7-----|

 Em                                       Am
Roll on thunder, shine on lightning. The days are long and the nights are frightening.
--------------------------------------------------------------------------------------|
--------------------------------------------------------------------------------------|
-------------------------------------------2------------------------------------------|
-2-----------------------------------------2------------------------------------------|
-2-----------------------------------------0------------------------------------------|
-0------------------------------------------------------------------------------------|

 D                                      Em         A5 Em           A5 Em
Nothing matters anyway, and that's the hell of it.
-------------------------------------------------------------------------|
-3-----------------------------------------------------------------------|
-2-----------------------------------------------------------------------|
-0---------------------------------------2----2-2--7--2---2---2-2---7--2-|
-----------------------------------------2----2-2--7--2---2---2-2---7--2-|
-----------------------------------------0----0-0--5--0---0---0-0---5--0-|

                                              Am
Winter comes and the winds blew colder. While some grew wiser, you just grew older
-----------------------------------------------------------------------------------|
-----------------------------------------------------------------------------------|
----------------------------------------------2------------------------------------|
-2--------------------------------------------2------------------------------------|
-2--------------------------------------------0------------------------------------|
-0---------------------------------------------------------------------------------|

     D                                        Em        A5 Em            A5 Em
and you never listened anyway, and that's the hell of it.
-------------------------------------------------------------------------------|
-----3-------------------------------------------------------------------------|
-----2-------------------------------------------------------------------------|
-----0-----------------------------------------2----2-2--7--2---2---2-2---7--2-|
-----------------------------------------------2----2-2--7--2---2---2-2---7--2-|
-----------------------------------------------0----0-0--5--0---0---0-0---5--0-|

 G
Good for nothing, bad in bed, nobody likes you and you're better off dead.
----------------------------------------------------------------------------|
----------------------------------------------------------------------------|
----------------------------------------------------------------------------|
-5--------5--------5------5----5------5--------------------5-----------5----|
-5--------5--------5------5----5------5--------------------5-----------5----|
-3--------3--------3------3----3------3--------------------2-----------3----|

    Em
Goodbye. We've all come to say goodbye (goodbye). Goodbye (goodbye)
-----------------------------------------------------------------------|
-----------------------------------------------------------------------|
-----------------------------------------------------------------------|
----2--2--------2-----------2-------2--------2---------2---------2-----|
----2--2--------2-----------2-------2--------2---------2---------2-----|
----0--0--------0-----------0-------0--------0---------0---------0-----|

 G
Born  defeated,  died in vain super-destruction, you were hooked   on pain.
----------------------------------------------------------------------------|
----------------------------------------------------------------------------|
----------------------------------------------------------------------------|
-5--------5--------5------5----5--------5--------------------5-----------5--|
-5--------5--------5------5----5--------5--------------------5-----------5--|
-3--------3--------3------3----3--------3--------------------2-----------3--|

     Em               Eb+         Em             Eb+
And though your music lingers on, all of us are glad you're gone
-------------------------------------------------------------------|
------0-----0----0--0--0--0---0--0-0--0---0---0--0----0--0---0-----|
------0-----0----0--0--0--0---0--0-0--0---0---0--0----0--0---0-----|
------2-----2----2--2--1--1---1--1-2--2---2---2--1----1--1---1-----|
-------------------------------------------------------------------|
-------------------------------------------------------------------|

    E
 If I could live my life half as worthlessly as you
----0------------------------------------------------|
----0------------------------------------------------|
----1------------------------------------------------|
----2------------------------------------------------|
----2------------------------------------------------|
----0------------------------------------------------|

        C                B             Em         C      Em       B
I'm convinced that I'd wind up burning too.
-----------------------------------------------------------------------|
--------5----------------4---------------------------------------------|
--------5----------------4---------------------------------------------|
--------5----------------4--------------2---4-5---10-----2---4-5---9---|
--------3----------------2--------------2---4-5---10-----2---4-5---9---|
----------------------------------------0---2-3----8-----0---2-3---7---|


ENDING : repeat this ad nauseam

 G
---------------------------------------|
---------------------------------------|
---3-4-5-4----3-4-5-4------------------|
-----------------------5-5-5----5-5-5--|
-----------------------5-5-5----5-5-5--|
-----------------------3-3-3----3-3-3--|
Tap to rate this tab
# A B C D E F G H I J K L M N O P Q R S T U V W X Y Z