Guitaretab - guitar tabs
Song name
# A B C D E F G H I J K L M N O P Q R S T U V W X Y Z

Paula Deanda - Footprints On My Heart tab

          
e|-2/5---4---0----------------2/5---4---0---1---2---4---7---5---------|
B|---------------0h2---0----------------------------------------------|
G|-------------------------2------------------------------------------|
D|--------------------------------------------------------------------|
A|--------------------------------------------------------------------|
E|--------------------------------------------------------------------|


[ Tab from: http://www.guitaretab.com/p/paula-deanda/100034.html ]
e|-4---0----------------2/5---4---0---1---2---4---7---5---------------|
B|--------0h2---0-----------------------------------------------------|
G|-------------------2------------------------------------------------|
D|--------------------------------------------------------------------|
A|--------------------------------------------------------------------|
E|--------------------------------------------------------------------|

den yall jzu keep kontinuin da song 
igiht sweet 
n yeb sowie diz ma first tab
Related for Footprints On My Heart tab
Advertisement will be closed in 10 seconds