Song name
# A B C D E F G H I J K L M N O P Q R S T U V W X Y Z

Paulina Rubio - Causa Y Efecto tab

-------------------------------------------------------------------------------
			     "Causa y Efecto" - Paulina Rubio
-------------------------------------------------------------------------------
Tabbed by: Mauricio Abril
http://mauartist.blogspot.com


Tuning: Standard


e|---------------------------------------------------------------------------|
B|---------------------------------------------------------------------------|
G|------9-9-9-9--7-9-9-9-9--7-2-2-2-2----------------------------------------|
D|-------------------------------------3-5-5-5-5-----------------------------|
A|---------------------------------------------------------------------------|
E|---------------------------------------------------------------------------|

e|---------------------------------------------------------------------------|
B|---------------------------------------------------------------------------|
G|------9-9-9-9--7-9-9-9-9--7-2-2-2-2----------------------------------------|
D|-------------------------------------3-5-5-5-5-----------------------------|
A|---------------------------------------------------------------------------|
E|---------------------------------------------------------------------------|

e|---------------------------------------------------------------------------|
B|---------------------------------------------------------------------------|
G|---9-9-9-9--7-9-9-9-9--7-14-14-14-14--10-12-12-12-12--10-10-10-10--12--5---|
D|---------------------------------------------------------------------------|
A|---------------------------------------------------------------------------|
E|---------------------------------------------------------------------------|


VERSES 1 & 2:


C			                      F
Quieres gobernar mi corazón 

C			                     F
Mi silencio en mi respiración. 

C			                              Am	           G		
Piensas que ni en sueños lograré vivir sin ti

F 	             G		              C	
Te lo aviso no funciona así. 


Mientes si te causa tan especial 
Sueñas que me vuelves de cristal 
Corre más deprisa a kilómetros de aquí 

F	                  G		         Fm		
Hoy decir a Dios me toca a mí. 



CHORUS:

C			                                   E		
   Sabes que aunque te creías perfecto

			                   Am 
   Por la ley de causa y efecto 

	                       F	    G	
   Hoy pagas por cada error.


Mira que mi amor te enciende y te enfría 
Como una ilusión que te espía 

		               F         G	        C
Y te enreda por diversión.      Oh.



VERSE 3: (same as above)

Cambia de estrategia por favor 
Que no me llevo bien con el dolor 
Creo en la energía que se mueve en espiral 
Y vivir en guerra me hace mal. 


CHORUS: (Same as above)

Sabes que aunque te creías perfecto 
Por la ley de causa y efecto 
Hoy pagas por cada error. 
Mira que mi amor te enciende y te enfría 
Como una ilusión que te espía 
Y te enreda por diversión. 



BRIDGE: 

F   	        G		                    F	
  En este duelo de piel contra piel 

              G		                C	
Giró la suerte y te toca perder 

			                      E
Que aunque te creías perfecto

		                   Am	 
Por la ley causa y efecto

	                     F	         G
Hoy pagas por cada error. 




FINAL CHORUS:

C#					                              F
   Mira que mi amor te enciende y te enfría 

			                         Bbm	
   Como una ilusión que te espía 

		                 F#  	    G#	
   Y te enreda por diversión. 


Sabes que aunque te creías perfecto 
Por la ley de causa y efecto 
Hoy pagas, hoy pagas 

                  C#
Por cada error.





| /  slide up
| \  slide down
| h  hammer-on
| p  pull-off
| ~  vibrato
| +  harmonic
| x  Mute note
===============================================================================
Tap to rate this tab
 
# A B C D E F G H I J K L M N O P Q R S T U V W X Y Z