Song name
# A B C D E F G H I J K L M N O P Q R S T U V W X Y Z

Pavement - Two States tab

Help us improve GuitareTab! Take a short survey!
Standard Tuning...

This is the main riff...

e--------------------------------------|
B--------------------------------------|
G--------------------------------------|
D----5-5--5--5-5--5--5-5-5--9--7-7-----|
A----5-5--5--5-5--5--5-5-5--9--7-7-----|
E----3-3--3--3-3--3--3-3-3--7--5-5-----|


The verse...


e--------------------------------------|
B--------------------------------------|
G--------------------------------------|
D----5---------------------------------|
A----5------------------------2--0-----|
E----3---------------------------------|

    (Let the first chord ring)

The solo...

e----------------------------------------------------------------------------|
B----------------------------------------------------------------------------|
G----------------------------------------------------------------------------|
D----3-5-8-5-3-5------3-5-8-5-3-5-------3-5-8-5-10-5-12-5-15-15-15^-15^-15^--|
A------------------2^----------------2^--------------------------------------|
E----------------------------------------------------------------------------|

Verse 2...

e--------------------------------------|
B--------------------------------------|
G--------------------------------------|
D----5---------------------------------|
A----5------------------------2--0-----|
E----3---------------------------------|

    (Let the first chord ring)


Then back into the main riff...

e------------------------------------|
B------------------------------------|
G------------------------------------|
D--5-5--5--5-5--5--5-5-5--9--7-7-----|
A--5-5--5--5-5--5--5-5-5--9--7-7-----|
E--3-3--3--3-3--3--3-3-3--7--5-5-----|


Then to this riff...

e--------------------------------------|
B--------------------------------------|
G--------------------------------------|
D----5---------------------------------|
A----5------------------------2--0-----|
E----3---------------------------------|


The quick strumming of...

e---------------|
B---------------|
G---------------|
D----5----------|
A----5----------|
E----3----------|


Any corrections are most welcome...
Related for Two States tab