Song name
# A B C D E F G H I J K L M N O P Q R S T U V W X Y Z

Pavement - Box Elder tab

Box Elder, by Pavement, from Westing by Musket and Sextant


Main Riff:
e-|---(0)--------7--7-7-7-7-5-5-5--|
B-|----7-7-7-5-5-5--5-5-5-5-5-5-5--|
G-|----6-6-6-6-6-6--6-6-6-6-6-6-6--|
D-|----7-7-7-7-7-7--7-7-7-7-7-7-7--|x2
A-|--0-(let ring)------------------|
E-|--------------------------------|


e-|---(0)--------7--7-7-7-7-5-5-5--|
B-|----7-7-7-5-5-5--5-5-5-5-5-5-5--|
G-|----4-4-4-4-4-4--4-4-4-4-4-4-4--|
D-|----6-6-6-6-6-6--6-6-6-6-6-6-6--|
A-|--------------------------------|
E-|--0-(let ring)------------------|


Play that over and over again until the chorus, which is just the following chords:
D A D A D E


The little ending riff goes like this:
e-|--0---------------|
B-|--5------5--------|
G-|--6--6-7---7-6----|
D-|--7------------7--|
A-|--0---------------|
E-|------------------|


Tabbed by Will Murdoch (will_m_@hotmail.com)
Tap to rate this tab
# A B C D E F G H I J K L M N O P Q R S T U V W X Y Z