Song name
# A B C D E F G H I J K L M N O P Q R S T U V W X Y Z

Pavement - Summer Babe tab

"summer babe" by pavement

chords for the whole song:
D5 (x320xx)
A5 (xx220x)
G  (3300x3)

D5 A5 G x4

          D5
Ice baby
                              D5
I saw your girlfriend and she was
                                                D5
Eating her fingers like they're just another meal
                D5
She waits there
                  D5
In the levee wash
                                                D5 A5 G x4
Mixing cocktails with a plastic-tipped cigar (go)

My eyes stick
To all those shiny things you wear on the front row delta strip
An abandoned houseboat
I will wait there
I'll be waiting forever
Waiting Waiting Waiting Waiting Waiting Waiting Waiting (go)

D5         A5   G
Minerals, ice deposits

D5         A5   G
Drop off of her shiny robe

D5               A5        G
I've got a lot of things that I want to sell

D5               A5    G
But not here babe, you took it all

Everytime I look around I find that I'm shocked
Everytime I look around I find that I'm shocked
Everytime I look around I find
Everytime I look around I find
Everytime Everytime Everytime You're my

Summer Babe
Summer Babe
Summer Babe
Summer Babe

solo (1)
e-------------------------------------------------------------------|
b--5--5-5--3-5--5--5--5--3-3--2-----------0--2-------0-0--2---------|
g--------------------------------2--2-2-2-2-----2----2-2----2-------|
d--------------------------------------------------4-----------5----|
a----------------------------------------------------------------5--|
e-------------------------------------------------------------------|

e-------------------------|
b-3--3-----3-----3--3-----|
g-2--2-----2-----2--2-----|
d-0--0--0--0--0--0--0-----|
a-------------------------|
e-------------------------|

verse one

solo 2
e--0-0-0-0---0--0-0--0--0-0--0---0-0--0--0--0--0--0--0---0-0--0-0-0-|
b--5-5-5-5---3--5-5--5--5-5--5---3-3--3--2--3--2--3--2---3-2--3-2-3-|
g-------------------------------------------------------------------|
d---------------------------as far as i can hear it repeats these---|
a---------------------------two notes mostly.-----------------------|
e-------------------------------------------------------------------|
                 fast strum:
e-------------------------------------------------------------------|
b-/-/ -7-7-7-7-7-7-7-7-7-7-7-7-7-7-7-7-7----------------------------|
g-/-/--9-9-9-9-9-9-9-9-9-9-9-9-9-9-9-9-9----------------------------|
d------0-0-0-0-0-0-0-0-0-0-0-0-0-0-0-0-0----------------------------|
a-------------------------------------------------------------------|
e-------------------------------------------------------------------|

verse two

solo three
e-------------------------------------------------------------------|
b--7-7--8--7--5--/-15151515----------7--8b-7---5--3--3-3-3-3-3b-3-2-|
g----------------/-14141414-----------------------------------------|
d------------------0-0-0-0------------------------------------------|
a----------------------------16--14---------------------------------|
e-------------------------------------------------------------------|

e-------------------------------------------------------------------|
b-3b-----3-/-5-5-5-/-7-7-7-7--5-/-8b-8-8-8--8--/-14b---10--10-10-10-|
g-----2-------------------------------------------------------------|
d-------------------------------------------------------------------|
a-------------------------------------------------------------------|
e-------------------------------------------------------------------|

e--10----/-10-/1010/1010----|-fast strum-----|---9------------------|
b-----10--------------------/--15-15-15-15-15-15------10------------|
g---------------------------/--14-14-14-14-14-14--------------------|
d-------------------------------------------------------------------|
a-------------------------------------------------------------------|
e-------------------------------------------------------------------|

e-------------------------------------------------------------------|
b-------------------------------------------------------------------|
g-------------------------------------------------------------------|
d-0--0--2--4--2--0------4-5--4--2--------------2-4--5-4-5--4-5--4---|
a------------------0--5-----------2--5---0-h-5----------------------|
e-------------------------------------------------------------------|

e--------------------------------------------------------------------|
b--------------------------------------------------------------------|
g---------------------9b--7-9b--7-9b--11-11-11-11-11--12-12-12-12-12-|
d--5-/-7b--5-7b---5-7------------------------------------------------|
a--------------------------------------------------------------------|
e--------------------------------------------------------------------|

e-------------------------------------------------------------------|
b-------------------------------------------------------------------|
g-------------------------------------------------------------------|
d-14-14-14-14-14-14-14--/-19-19-19-19-19-19-19-19-19-19-------------|
a-------------------------------------------------------------------|
e-------------------------------------------------------------------|

verse three
fast strum
e-------------------------------------------12b---------------------|
b--10101010101010101010101010101010101010-------12-14b-12-10--------|
g--9-9-9-9-9-9-9-9-9-9-9-9-9-9-9-9-9-9-9----------------------------|
d-------------------------------------------------------------------|
a-------------------------------------------------------------------|
e-------------------------------------------------------------------|

e--------------------------------------------------------------------|
b--0--0-0--/-2-3-2--3-/-5--3--5-5-5-5-5-/-7-7-7-7-/-8--7-8b--7--7-8--|b
g--0--0-0------------------------------------------------------------|
d--------------------------------------------------------------------|
a--------------------------------------------------------------------|
e--------------------------------------------------------------------|

e--------------------------------------------------------------------|
b-7-8b--7--8b--/-10-/-10-----------------------------------2-2-2-2---|
g--------------/-9--/-9---over and over---then--9-9--7--6--3-3-3-3---|
d-------------------------------------------------x-x--x--x--0-0-0-0-|
a-------------------------------------------------7-7--5--4----------|
e--------------------------------------------------------------------|

e---------------------------|
b---------------------------|
g-9-9--7-6-repeat til end.--|
d-x-x--x-x------------------|
a-7-7--5-4------------------|
e---------------------------|
Tap to rate this tab
# A B C D E F G H I J K L M N O P Q R S T U V W X Y Z