Song name
# A B C D E F G H I J K L M N O P Q R S T U V W X Y Z

Pavement - Gold Soundz tab

-------------------------------------------------------------------------------
			    GOLD SOUNDZ - Pavement
-------------------------------------------------------------------------------

Tuning:DADABE

Verse:

E|--0------------0------0--------0--------|
B|--2--------0h2---2----2--------5--------|
A|--0-------------------0--------0--------|
D|--2-------------------x--------4--------|
A|--0-------------------2--------5--------|
D|----------------------------------------|



Chorus:

E|---5------0------0------0------|
B|---5------5------2------5------|
A|---0------0------0------0------|
D|---x------4------x------4------|
A|---4------5------2------5------|
D|---4------0-------------0------|


A great tune
Tap to rate this tab
 
# A B C D E F G H I J K L M N O P Q R S T U V W X Y Z