Song name
# A B C D E F G H I J K L M N O P Q R S T U V W X Y Z

Pavement - Zurich Is Stained tab

-------------------------------------------------------------------------------
			    ZURICH IS STAINED - Pavement
-------------------------------------------------------------------------------

Tuning: CGDGBE

Verse

E|--0--------------------------------------------------------------------------------------------|
B|--1----------3---------------5--------5--------5----------------------5------------------------|
G|--0----------0---------------5--------5--------5----------------------5------------------------|
D|--2----------0---------------x--------x--------x----------------------x------------------------|
G|--2----------0---------------5--------5--------5----------------------5------------------------|
C|-----------------------------5--------0--------5----------------------0------------------------|



E|--0------------------------------------------------------------|
B|--1---------3----------------------------5---------5-----------|
G|--0---------0----------------------------5---------5-----------|
D|--2---------0----------------------------x---------x-----------|
G|--2---------0----------------------------5---------5-----------|
C|-----------------------------------------5---------0-----------|




Slide guitar part

E|------12----------10---------5------------5----------|
B|-/12-----12\-/10-----10\-/5----5------/5----5-----5/-|
G|----------------------------------5------------5-----|
D|-----------------------------------------------------|
G|-----------------------------------------------------|
C|-----------------------------------------------------|


Chorus



E|------------------------------------------------------------------|
B|------------------------------------------------------------------|
G|--5-----------------5-------7-------9--------------5--------------|
D|--x-----------------x-------x-------x--------------x--------------|
G|--5-----------------5-------7-------9--------------5--------------|
C|--5-----------------0-------0-------9--------------5--------------|



E|-----------------------------------------------------------------------------|
B|-----------------------------------------------------------------------------|
G|--5-----------------5--------------------7----9----------------5-------------|
D|--x-----------------x--------------------x----x----------------x-------------|
G|--5-----------------5--------------------7----9----------------5-------------|
C|--5-----------------0--------------------0----9----------------5-------------|



E|-------------------------------------------|
B|-------------------------------------------|
G|-5-----------------------------------------|
D|-x-----------------------------------------|
G|-5------2--5------2--5------2--5------2----|
C|-5------2--5------2--5------2--5------2----|
Tap to rate this tab
 
# A B C D E F G H I J K L M N O P Q R S T U V W X Y Z