Pavement - Trigger Cut tab

-------------------------------------------------------------------------------
			     TRIGGER CUT - Pavement
-------------------------------------------------------------------------------
Tabbed by: Francis

Tuning: CGDGBE


Intro

E|---------------------------------------------------------------------------|
B|---------------------------------------------------------------------------|
G|----------------------------------------0-0-0-0-0--------------------------|
D|-0--0--0--0--0--0--0-----0--0--0--0--0--0-0-0-0-0-----0--0--0--0--0--0-----|
G|-0--0--0--0--0--0--0-----0--0--0--0--0--0-0-0-0-0--3--0--0--0--0--0--0-----|
C|----------------------6-------------------------------------------------5--|


E|---------------------------------------------------|
B|---------------------------------------------------|
G|----------------0-0-0-0-0--------------------------|
D|-0--0--0--0--0--0-0-0-0-0-----0--0--0--0--0--0-----|
G|-0--0--0--0--0--0-0-0-0-0--3--0--0--0--0--0--0-----|
C|------------------------------------------------5--|


E|----------------------------------------------------------------------------|
B|----------------------------------------------------------------------------|
G|----------------------------------------------------------------------------|
D|-0--0--0--0--0--0--0--0-----0--0--0--0--0--0--0-----0--0--0--0--0--0--0--0--|
G|-0--0--0--0--0--0--0--0--3--0--0--0--0--0--0--0-----0--0--0--0--0--0--0--0--|
C|-------------------------------------------------5--------------------------|


second guitar part during intro
E|-----------------------------------|
B|-----------------------------------|
G|-----------------------------------|
D|-5------4/5------4/5------4/5------|
G|-----------------------------------|
C|-----------------------------------|


Verse
E|-------------------------------------------------------------------------|
B|-------------------------------------------------------------------------|
G|-------------------------------------------------------------------------|
D|-5--5--5--5--5--5--5--5--8--8--8--8--8--8--8--8--9--9--9--9--9--9--9--9--|
G|-0--0--0--0--0--0--0--0--0--0--0--0--0--0--0--0--0--0--0--0--0--0--0--0--|
C|-------------------------------------------------------------------------|


E|----------------------------------|
B|----------------------------------|
G|----------------------------------|
D|-12--12--12--12--12--12--12--12---|
G|--0---0---0---0---0---0---0---0---|
C|----------------------------------|
                                                                              


Pre-Chorus

E|---------------------------------------------------|
B|---------------------------------------------------|
G|---------------------------------------------------|
D|-9--9--9--9--9--9--9--9---9--7--7--7--7--7--7--7---|
G|-9--9--9--9--9--9--9--9---7--6--6--6--6--6--6--6---|
C|---------------------------------------------------|


E|--------------------------------------------------------------------------|
B|--------------------------------------------------------------------------|
G|---------------------------------------------------4--4--4--4--4--4--4--4-|
D|-5--5--5--5--5--5--5--5---5--5--5--5--5--5--5--5---5--5--5--5--5--5--5--5-|
G|-5--5--5--5--5--5--5--5---4--4--4--4--4--4--4--4---0--0--0--0--0--0--0--0-|
C|--------------------------------------------------------------------------|



Chorus
E|------------------------------------------|
B|-5-5----3----3----------------------------|
G|-4-4----2----2---5---5--5--5--4--5--4-----|
D|-x-x----x----x---x---x--x--x--------------|
G|-4-4----2----2---5---5--5--5--------------|
C|-4-4----2----2----------------------------|


E|---------------------------------------|
B|-5-5----3----3-------------------------|
G|-4-4----2----2---5--------3------------|
D|-x-x----x----x---x--------3------------|
G|-4-4----2----2---5--------3------------|
C|-4-4----2----2-------------------------|



outro

   Gtr 1:
E|------------------------------------------------------------------------------------------------|
B|------------------------------------------------------------------------------------------------|
G|------------------------------------------------------------------------------------------------|
D|--0--0--0--0--0--0--0-----0--0--0--0--0--0--0-----0--0--0--0--0--0--0-----0--0--0--0--0--0--0---|
G|--0--0--0--0--0--0--0-----0--0--0--0--0--0--0-----0--0--0--0--0--0--0-----0--0--0--0--0--0--0---|
C|-----------------------5-----------------------5-----------------------5------------------------|
 |                                                                                                |
 | Gtr 2:                                                                                         |
E|------------------------------------------------------------------------------------------------|
B|----------12----12-12-------------12----12-12-------------12----12-12-------------12----12-12---|
G|--/-----------------------/-----------------------/-----------------------/---------------------|
D|------------------------------------------------------------------------------------------------|
G|------------------------------------------------------------------------------------------------|
C|------------------------------------------------------------------------------------------------|
 |                                                                                                |
 | Gtr 3:                                                                                         |
E|------------------------------------------------------------------------------------------------|
B|------------------------------------------------------------------------------------------------|
G|--------------------------------------------------4-----------------------7---------------------|
D|4/5--------------------4/5---------------------------------5-----------------------5------------|
G|------------------------------------------------------------------------------------------------|
C|------------------------------------------------------------------------------------------------|





in standard

E|-----------------------------------------|
B|-9--9------9--9------5--5------7--7------|
G|-9--9------9--9------6--6------8--8------|
D|-9--9------9--9------5--5------7--7------|
A|-7--7------7--7------7--7------9--9------|
E|---------------------5--5------7--7------|

Tap to rate this tab
 
# A B C D E F G H I J K L M N O P Q R S T U V W X Y Z