Song name
# A B C D E F G H I J K L M N O P Q R S T U V W X Y Z

Pavement - Greenlander tab

PAVEMENT - GREENLANDER tabbed by joe

Tuning:
E
B
G
D
G
C

I havent tabbed rhythms etc, and theres some higher 2nd guitar parts goin on that I 
be bothered to tab - but this is the basis for the song and you can do a pretty sick little 
of this amazing tune from these chords.


intro/verse:
-----------------------------------------|
-----------------------------------------|
--------------7-----6-----5--------------|
--0-----------0-----0-----0--------------|
--------------0-----7-----5--------------|
-----------------------------------------|

     and when the april thaw:

-----------------------------------------|
-----------------------------------------|
-----4---2-----0---2-4-2---0-------------|
-----0---0-----0---2-2-2---0-------------|
-----0---0-----0---2-2-2---0-------------|
-------------------2-2-2---0-------------|


brings us out again:

-----------------------------------------|
-----------------------------------------|
---------------4----7---7----------------|
---------------4----0---5----------------|
---------------X----0---5----------------|
---------------4-------------------------|

we can bless the arrows etc.

-----------------------------------------|
-----------------------------------------|
---------------4----7---7----------------|
---------------4----0---5----------------|
---------------X----0---5----------------|
---------------4-------------------------|

and the land will never fall
----------------------------------------|
----------------------------------------|
---------4-----------2-----0------------|
---------4-----------2-----0------------|
---------X-----------X-----0---0000000--|
---------4-----------2------------------|
Tap to rate this tab
 
# A B C D E F G H I J K L M N O P Q R S T U V W X Y Z