Guitaretab - guitar tabs
Song name
# A B C D E F G H I J K L M N O P Q R S T U V W X Y Z

Pavement - Trigger Cut tab

Band: Pavement
Song: Trigger Cut
Album: Slanted and Enchanted
Year: 1992

e|------------------------------------------|
B|------------------------------------------|
G|------------------------------------------|
D|4-5555555455555554555555545555555455555554
A|------------------------------------------
E|3-3333333363333333333333336333333333333333

e||-------------------------------------|
B||-------------------------------------|
G||*---------33333333-44444444-77777777-|
D||*55555555-00000000-00000000-00000000-|
A||-------------------------------------|
E||-33333333-33333333-33333333-33333333-|
[ Tab from: http://www.guitaretab.com/p/pavement/81946.html ]
e|----------------------------------------------------|
B|----------------------------------------------------|
G|99999999--------------------------------------------|
D|99999999-99999999-----------------------------------|
A|77777777-xxxxxxxx-1010101010101010-1010101010101010-|
E|---------99999999-8-8-8-8-8-8-8-8-7-7-7-7-7-7-7-7-|

e|----------------------------------------------|
B|----------------------------------------------|
G|-----------99-7-7-5-5555555--99-7-7-5-5555555-|
D|55555555---99-7-7-5-5555555--99-7-7-5-5555555-|
A|55555555---77-5-5-3-3333333--77-5-5-3-3333333-|
E|33333333--------------------------------------|

e|----------------------------------------------||
B|----------------------------------------------||
G|-99-7-7-5-5555555--99-7-7-5-5555555----------*||
D|-99-7-7-5-5555555--99-7-7-5-5555555-8-8888888*||
A|-77-5-5-3-3333333--77-5-5-3-3333333-8-8888888-||
E|------------------------------------6-6666666-||
Related for Trigger Cut tab