Song name
# A B C D E F G H I J K L M N O P Q R S T U V W X Y Z

Pavement - Lorettas Scars tab

-------------------------------------------------------------------------------
			     Loretta's Scars - Pavement
-------------------------------------------------------------------------------

Tabbed by: paintitblack39
e-mail: psyche3991@sbcglobal.net

Tuning: Malkmus Tuning (CGDGBE)

I'll give you an idea of how many times you play each chord and such, but it's gonna be 
if you just listen to the song.

Main Riff

e|-------------------------------------------------|
B|-----------------------3-3-3--3-3-3-3-3--3-------|
G|--3-3-3--5-5-5-5-5--5--3-3-3--3-3-3-3-3--3-------|
D|--3-3-3--5-5-5-5-5--5--5-5-5--3-3-3-3-3--3-------|
G|--5-5-5--5-5-5-5-5--5----------------------------|
C|-------------------------------------------------|

Chorus:

Once again, I'll give you the idea of how many times you play each chord and such, but 
gonna be easier if you just listen to the song.

e|------------------------------------------------|
B|------------------------------------------------|
G|------------------------------------------------|
D|--3-3-3--3-3--3-3--3--3---3-3-3--3-3--3-3--3--3-|
G|--------------------------0-0-0--3-3--3-3--3--3-|
C|--5-5-5--5-5--5-5--5--5-------------------------|

Bridge (The part where the singer sings "From now on, I can see the sun, Makes me 
Makes me Run)

This time I'm just gonna give you chords to strum

e|--------------------------------------|
B|--------------------------------------|
G|--------------------------------------|
D|-3------3-----------3--------3--------|
G|-3------2-----------------------------|
C|--------------------5--------3--------|

Repeat and stuff, now.

Enjoy!
==============================================================================
| /  slide up
| \  slide down
| h  hammer-on
| p  pull-off
| ~  vibrato
| +  harmonic
| x  Mute note
==============================================================================D
Tap to rate this tab
 
# A B C D E F G H I J K L M N O P Q R S T U V W X Y Z