Song name
# A B C D E F G H I J K L M N O P Q R S T U V W X Y Z

Pavlo - Paradise tab

-------------------------------------------------------------------------------
                            Paradise - Pavlo ( www.pavlo.net)
-------------------------------------------------------------------------------
Tabbed by: Zamboni
Email: yowzenwutzee@hotmail.com

Tuning: Standard EADGBe
X2:
e|----2-2---3-2h3p2p0-0-2---2-3-5-5/7-----------------2-2--3-2h3p2p0-0-2----|
B|-0------------------------------------8--8/10-7---0-----------------------|
G|--------------------------------------------------------------------------|
D|--------------------------------------------------------------------------|
A|--------------------------------------------------------------------------|
E|--------------------------------------------------------------------------|

e|--------------------------------------------------------------------------|
B|-2-3-5--3-2-3-2-0---0-2---------------------------------------------------|
G|------------------3-------------------------------------------------------|
D|--------------------------------------------------------------------------|
A|--------------------------------------------------------------------------|
E|--------------------------------------------------------------------------|

| /  slide up
| \  slide down
| h  hammer-on
| p  pull-off
| ~  vibrato
| +  harmonic
| x  Mute note
===============================================================================
Tap to rate this tab
 
# A B C D E F G H I J K L M N O P Q R S T U V W X Y Z