Song name
# A B C D E F G H I J K L M N O P Q R S T U V W X Y Z

Pavlo - Adieo tab

	Pavlo - Adieo

by Sara (saruska.phaneuf@gmail.com)


Solo guitar:

E|------------------------------------------------------------|
B|----------------------------7-7----7-9-10-10/12-10--12-10-9-|
G|6/----6-8-9-9/11-9--11-9-8-------6--------------------------|
D|----6-------------------------------------------------------|
A|------------------------------------------------------------|
E|------------------------------------------------------------|


E|---------------------------------------------------------------------------------------|
B|-9-9-9-9--x-9-10-12-12/14-12--14-12-10--------5-7--5-5--7-5-4----9-7-6-7-5--7-6-4-5-4--|
G|----------------------------------------5-6-8-----------------6------------------------|
D|---------------------------------------------------------------------------------------|
A|---------------------------------------------------------------------------------------|
E|---------------------------------------------------------------------------------------|


E|--------7-5---------------------------------------------------------------------------|
B|9-7-6-7-----9-7-6-------------------------------------7-7----7-9-10-10/12-10--12-10-9-|
G|------------------7-6/----6-6----6-8-9-9/11-9-11-9-8-------6--------------------------|
D|-------------------------------6------------------------------------------------------|
A|--------------------------------------------------------------------------------------|
E|--------------------------------------------------------------------------------------|


E|---------------------------------------------------------------|
B|-9-9-9-9--x-9-10-12-12/14-12--14-12-10--------5---7-5----------|
G|----------------------------------------5-6-8---8-----8-6-8-6-5|
D|---------------------------------------------------------------|
A|---------------------------------------------------------------|
E|---------------------------------------------------------------|


E|------------------------------------------------7-5------------|
B|----------5------9-7-6-7-5--7-6-4-5-4--9-7-6-7------9-7-6------|
G|7-6-4-6-7---7-6-------------------------------------------7-6/-|
D|---------------------------------------------------------------|
A|---------------------------------------------------------------|
E|---------------------------------------------------------------|


E|-------------------------------7-9-7----------------------------7/--|
B|--9--9-7-10-9-7------10-10--10-------9-7-9----9-9--9-7-10-9-7-------|
G|----------------9-8-------------------------------------------9-----|
D|--------------------------------------------------------------------|
A|--------------------------------------------------------------------|
E|--------------------------------------------------------------------|


E|9-9-9--9-11-12-14/16-14-12-11-------9/11-9---|
B|------------------------------14-13----------|
G|---------------------------------------------|
D|---------------------------------------------|
A|---------------------------------------------|
E|---------------------------------------------|


E|-------------------------------------------------------------|
B|----------------------------7-7----7-9-10-10/12-10--12-10-9--|
G|6/----6-8-9-9/11-9--11-9-8-------6---------------------------|
D|----6--------------------------------------------------------|
A|-------------------------------------------------------------|
E|-------------------------------------------------------------|


E|------------------------------------------------------------------------|
B|9-9-9-9--x-9-10-12-12/14-12--14-12-10------------5-----------5-7-5------|
G|-------------------------------------------5-6-8---8-6-5-6-8-------8-6-8|
D|---------------------------------------6-7------------------------------|
A|------------------------------------------------------------------------|
E|------------------------------------------------------------------------|


E|------------------------------7-5---------------|
B|9-7-6-7-5--7-6-4-5-4--9-7-6-7-----9-7-6---------|
G|----------------------------------------7-6/----|
D|------------------------------------------------|
A|------------------------------------------------|
E|------------------------------------------------|


E|--------------------------------7-9-7------------------------------7/--|
B|9--9-7-10-9-7------10-10-10--10-------9-7-9----9-9-9--9-7-10-9-7-------|
G|--------------9-8------------------------------------------------9-----|
D|-----------------------------------------------------------------------|
A|-----------------------------------------------------------------------|
E|-----------------------------------------------------------------------|


E|9-9--9-11-12-14/16--14-12-11-------9/11-9--14-12-11-------9/11-9--14-12-11-------9/11-9|
B|-----------------------------14-13------------------14-13------------------14-13-------|
G|---------------------------------------------------------------------------------------|
D|---------------------------------------------------------------------------------------|
A|---------------------------------------------------------------------------------------|
E|---------------------------------------------------------------------------------------|


E|------------------------------------------------------------|
B|------------------------------------------------------------|
G|------------------------------------------------------------|
D|--------------------------------------4---------------------|
A|----4-6-7--6-4-6-4---6----------4-6-7----7-6-7-6-4-6-4------|
E|5-7----------------7---7-4-5--7------------------------7-7--|


E|--------------------------------------------------|
B|--------------------------------------------------|
G|--------------------------------------------------|
D|--------------------------------------4-----------|
A|----4-6-7--6-4-6-4---6----------4-6-7----7-6-4----|
E|5-7----------------7---7-4-5--7----------------7--|


E|------4-5-4--2-0-2-0---0----------------------4-5-4--2-0-2-0---0-----------0-2-0--------|
B|----2----------------4---4-2-4-2-0-2-0---0--2----------------4---4-2-0-2-4-------4-0-2--|
G|6\-------------------------------------1------------------------------------------------|
D|----------------------------------------------------------------------------------------|
A|----------------------------------------------------------------------------------------|
E|----------------------------------------------------------------------------------------|


E|------4-5-4--2-0-2-0---0----------------------4-5-4--2-0-2-0---0------7-5-------7-5--------|
B|----2----------------4---4-2-4-2-0-2-0---0--2----------------4---4-2------8-7-5-----8-7-5--|
G|6\-------------------------------------1---------------------------------------------------|
D|-------------------------------------------------------------------------------------------|
A|-------------------------------------------------------------------------------------------|
E|-------------------------------------------------------------------------------------------|


E|----------------------------------------------------7-5----------------|
B|------7---------7h9-7--7---------7-----------7h9-7------8-7-5----------|
G|--6-9---9-----8----------9---6-9---9-------8------------------8-7-6\---|
D|7---------7-9--------------7---------7-7/9-----------------------------|
A|-----------------------------------------------------------------------|
E|-----------------------------------------------------------------------|


E|--4-5-4--2-0-2-0---0----------------------4-5-4--2-0-2-0---0-----------0-2-0--------|
B|2----------------4---4-2-4-2-0-2-0---0--2----------------4---4-2-0-2-4-------4-0-2--|
G|-----------------------------------1------------------------------------------------|
D|------------------------------------------------------------------------------------|
A|------------------------------------------------------------------------------------|
E|------------------------------------------------------------------------------------|


E|------4-5-4--2-0-2-0---0----------------------4-5-4--2-0-2-0---0------7-5-------7-5--------|
B|----2----------------4---4-2-4-2-0-2-0---0--2----------------4---4-2------8-7-5-----8-7-5--|
G|6/-------------------------------------1---------------------------------------------------|
D|-------------------------------------------------------------------------------------------|
A|-------------------------------------------------------------------------------------------|
E|-------------------------------------------------------------------------------------------|


E|----------------------------------------------------0-9-7-9--12-12-12-12-12-12-12-12-12-12...|
B|------7---------7h9-7--7---------7-----------7h9-7-------------------------------------------|
G|--6-9---9-----8----------9---6-9---9-------8-------------------------------------------------|
D|7---------7-9--------------7---------7-7/9---------------------------------------------------|
A|---------------------------------------------------------------------------------------------|
E|---------------------------------------------------------------------------------------------|
Tap to rate this tab
# A B C D E F G H I J K L M N O P Q R S T U V W X Y Z