Song name
# A B C D E F G H I J K L M N O P Q R S T U V W X Y Z

Pavlovs Dog - Only You chords

Highlighted       Show chord diagrams
                                          Artist - Pavlov's Dog
                                         ***********************
                                             Song - Only You
                                            *****************
                                            Album -  Third
                                           ****************
                                          Tabbed By - Ayreon77
                                         **********************





VERSE 1
********
C          D           Bb           Am
  You Were There, With Gold In Your Hair
Bb         Am             D
  And Gold Everywhere You Turn
C           D          Bb         Am
  And I Was Strong, No One To Tag Along
Bb                Am            F
  Nothing Left To Lose, Or Even Try For
      Em
Or to gain

-------------------------------------------------------
CHORUS
*******
        Am     Em     F
Loverly Yooo---ooou,  You  
               Em
Could Bare The Love
            D       G
And All The Pain
                Am     G
And Theres Only Yooo---ooou
                Am     G
And Theres Only Yooo---ooou

-------------------------------------------------------
VERSE 2
********
C             D         Bb              Am
  And All The While, We Danced Away The Hours
Bb      Am              D
  Never Really Quite In Time
C              D             Bb            Am
  And All Your Laughs, To My Unsuspectings Smiles
Bb                       Am            F
  That Could'nt Get Much Further In My Heart
              Em
Oh There They Doved

  Am
Ohhhhh

-------------------------------------------------------
01:42
Guitar Solo - C D F G Am C D F G 
************ 
[-----------brp------|-brp---13-----|-----------|-brp------|-brp---13-----]
[-rb----13--15-13-15-|-15-13--------|-----12-13-|-15-13-15-|-15-13--------]
[-14-----------------|-----------12-|-14--------|----------|-----------12-]
[--------------------|--------------|-----------|----------|--------------]
[--------------------|--------------|-----------|----------|--------------]
[--------------------|--------------|-----------|----------|--------------]

Am Bm Am Bm Am Bm Am Bm

[-low--br----|--------------|-----br-|----]
[------12-12-|-----12-13-15-|-----12-|----]
[-14---------|-14-----------|-14-----|-14-]
[------------|--------------|--------|----]
[------------|--------------|--------|----]
[------------|--------------|--------|----]


-------------------------------------------------------
VERSE 3
********
C          D            Bb              Am
  Fair The Well, Who'll Sheild Yourself Well 
Bb             Am                 D
  I Hope Those Bitter Winds Don't Chill
C            D             Bb              Am
  Until Your Back, I'll Be Waiting For You Last
Bb                       Am            F
  Theres Nothing Left To Lose, Or Even Try For
      Em
Or to gain

-------------------------------------------------------
CHORUS
*******
        Am     Em          F
Loverly Yooo---ooou,  Only You 
               Bm
Could Bare The Love
                     D      G
All The Love And The Pain
                Am     G
And Theres Only Yoooo--ooou
                 Am     G
Well Theres Only Yoooo--ooou
                Am    G
And Theres Only You
                 Am
Well Theres Only You
     G
Only You
          Am
Well Only You
     G
Only You
            Am
Well Theres Only
                        G
Well Theres Only You
                 Am
Well Theres Only You




Nice Track. Enjoy.........
Tap to rate this tab
# A B C D E F G H I J K L M N O P Q R S T U V W X Y Z