Guitaretab - guitar tabs
Song name
# A B C D E F G H I J K L M N O P Q R S T U V W X Y Z
Home / P / Paw / Pansy tab

Paw - Pansy tab

e------0----------0-----------------|
B--------3----------3---------------|
G----0---------0--------------------|
D-----------------------------------|        This is the wah-wah part that I messed up
A--3---------2----------------------|          typing
E-----------------------------------|
[ Tab from: http://www.guitaretab.com/p/paw/50895.html ]
e------0----------0------|
B--------3----------3----|
G------------------------|
D----0---------0---------|
A------------------------|
E--3---------2-----------|

And then

-------------------------------------------------------------|
-------------------------------------------------------------|
----5--5---5---------7----7----------------------------------|
----5--5---5---------7----7----5-----5------2----------------|
----3--3---3---------5----5----5-----5------2--------2-------|
-------------------------------3-----3------0--------0-------|
Related for Pansy tab