Guitaretab - guitar tabs
Song name
# A B C D E F G H I J K L M N O P Q R S T U V W X Y Z

Pax 217 - Tonight tab

One of the best pax songs in my opinion. I can't gaurantee how good it is but it works with the cd
-Tom

Tuning: E, B, G, D, A, D

Refrain:
E  ---------------------------------------------------------------------|
B  ---------------------------------------------------------------------|
G  ----7-7-7-7-7-7------------------------------------------------------|  (2X)
D  --0-7-7-7-7-7-7-0-0-5-5-5-5-5-5-0-0-4-4-4-4-4-4-0-0-5-5-5-5-5-5-0----|
A  --0-5-5-5-5-5-5-0-0-5-5-5-5-5-5-0-0-4-4-4-4-4-4-0-0-5-5-5-5-5-5-0----|
D --0--------------0-0-5-5-5-5-5-5-0-0-4-4-4-4-4-4-0-0-5-5-5-5-5-5-0----|

Verses:
[ Tab from: http://www.guitaretab.com/p/pax-217/122264.html ]
E -2-2-2-2-2-2-2-2--2-2-2-2-2-2-2-2--2-2-2-2-2-2-2-2--2-2-2-2-2-2-2-2----|
B -3-3-3-3-3-3-3-3--2-2-2-2-2-2-2-2--3-3-3-3-3-3-3-3--2-2-2-2-2-2-2-2----|
G -4-4-4-4-4-4-4-4--2-2-2-2-2-2-2-2--4-4-4-4-4-4-4-4--2-2-2-2-2-2-2-2----|
D -----------------------------------------------------------------------|
A -----------------------------------------------------------------------|
D -----------------------------------------------------------------------|

There is no guitar part for the Pre-chorus that I can tell

Bridge:
E ----------------------------------------|
B ----------------------------------------|
G ----------------------------------------|
D --0-------5-------4--------5--5-7-------|
A --0-------5-------4--------5--5-7-------|
D  -0-(ring)--5-(ring) -4-(ring) --5--5-7-|

E -10-15-10-14-10-10--10-15-10-14-10----------|
B -------------------------------------10-----|
G --------------------------------------------|
D --------------------------------------------|
A --------------------------------------------|
D --------------------------------------------|

E -----------------------------|
B -----------------------------|
G -----------------------------|
D -5-5-5--7-7-7--5-5-5--7-7-7--|  (2X)
A -5-5-5--7-7-7--5-5-5--7-7-7--|
D -5-5-5--7-7-7--5-5-5--7-7-7--|

Keep ringing the     D -0    until you get back into the refrain
                              A -0
                              D -0

-Peace!
Related for Tonight tab