Pax 217 - What Is Love tab

Author: Pax 217
Title: What Is Love
Album: Engage
Transcribed By: Steven Rehbein
E-mail Address: sonicbluezx3@yahoo.com
Tuning: D-A-D-G-B-E (Drop D)

Note: For the Intro/Verse/Outro, each note is played a bunch of times, listen to the 
song to figure it out.

Intro/Verse/Outro:
E--13--12--15--13--12--|
B----------------------|
G----------------------|
D----------------------|
A----------------------|
D----------------------|

Pre Chorus:
E--------------------------|
B--------------------------|
G--------------------------|
D--------------------------|
A--5--4----3-----5--4----3-|
D--------------------------|

Heavy Part:
E----------------------------|
B----------------------------|
G----------------------------|
D--12--0-3-5--12-0-3-5-3-0-0-|
A--12--0-3-5--12-0-3-5-3-0-0-|
D--12--0-3-5--12-0-3-5-3-0-0-|

Solo:
E--------------------------------------------------------------------------------------|
B--8-10-11-11-11-11-10-8-10--8-6--5-3--/13-11-10-11--/13-11-10-11--10-8-10--8-10--6-8--|
G--------------------------------------------------------------------------------------|
D--------------------------------------------------------------------------------------|
A--------------------------------------------------------------------------------------|
D--------------------------------------------------------------------------------------|

E------------|
B--6-5-------|
G-----7-5-7--|
D------------|
A------------|
D------------|


Solo on top of heavy part (the number in parenthesis after the note is how many times 
each note is played)
E-----------------------------------------|
B-----------------------------------------|
G--5(16)--3(16)--2(8)--0(8)--2(16)--------|
D-----------------------------------------|
A-----------------------------------------|
D-----------------------------------------|

E---------------------------------------|
B---------------------------------------|
G--5(16)--7(16)--10(8)--9(8)--10(1)-----|
D---------------------------------------|
A---------------------------------------|
D---------------------------------------|


Song Order:
Intro/Verse/Outro: 3x
Pre Chorus: 1x
Main Riff: 3x
Intro/Verse: 1x
Pre Chorus: 1x
Main Riff: 7x
Solo (Intro/Verse/Outro is played in the background 2x)
Pre Chorus: 1x
Main Riff: 16x
Fill on top of Main Riff (Comes in after Main Riff has been played 9 times): 1x
Intro/Verse/Outro: 1x


End on:
E--12-|
B-----|
G-----|
D-----|
A-----|
D-----|
Tap to rate this tab
 
# A B C D E F G H I J K L M N O P Q R S T U V W X Y Z