Pax 217 - Melody tab

Melody
Pax217
Tabbed by Steven Rehbein
Tuning: Drop D

Intro:
E------------------------------|
B---------(5)------------------|
G------------(7)---------------|
D--7--9-(6)-----7--9-----------|
A--7--7---------7--7-----------|
D--7--7---------7--7-----------|
  let ring

Chorus:
E-------------------------------------------|
B-------------------------------------------|
G-------------------------------------------|
D-4-4--4--0-0--0--2-2--2--7-7-7-7-7-7-7-----|
A-4-4--4--0-0--0--2-2--2--7-7-7-7-7-7-7-----|
D-4-4--4--0-0--0--2-2--2--7-7-7-7-7-7-7-----|

Verse:
E-------------------------------------------|
B-------------------------------------------|
G-6h7p6----------------------------7p6------|
D-------7-6--------------7-------------7----|
A-----------7-5/4--4-4-4---4-5-5-5-------7--|
D-------------------------------------------|

After 2nd Chorus:
E-----------------------------------------------------------------------|
B-----------------------------------------------------------------------|
G-----------------------------------------------------------------------|
D-{7}--7-7-7-7-7-7-7-7-7-7-7-7-9-9-9-9-7-7-7-7-7-7-7-7-7-7-7-7-9-9-9-9--|
A-----------------------------------------------------------------------|
D-----------------------------------------------------------------------|
{repeat note palm muted a bunch of times.}

Solo:
E-4*--4*---------5-------7-----------5-------7--|
B---2---2--2h3p2---2h3p2---2-2-2h3p2---2h3p2----|
G-----------------------------------------------|
D-----------------------------------------------|
A-----------------------------------------------|
D-----------------------------------------------|
   *Bend note up a whole step

E--5-5-5-4-4-2-2-0-0-------------0-0-0----------|
B--7-7-7-5-5-4-4-2-2--3-3-3-3-3--2-2-2----------|
G---------------------2-2-3-3-2-----------------|
D-----------------------------------------------|
A-----------------------------------------------|
D-----------------------------------------------|
Tap to rate this tab
 
# A B C D E F G H I J K L M N O P Q R S T U V W X Y Z