Guitaretab - guitar tabs
Song name
# A B C D E F G H I J K L M N O P Q R S T U V W X Y Z

Pax 217 - Countin Down The Days tab

Artist: PAX 217
Song: Countin' Down The Days

Intro:

Guitar 1|-----|
	|-----|
	|--1--|
	|--2--|Repeat 2x
	|--2--|
	|-----|

Guitar 2|----------------------|
    |--------------------------|
    |----8---8h9---------------|
    |--9---9------|    Repeat--| 2x
    |--------------------------|
    |--------------------------|

Verse: "I Remember What..." & "Your The One"

Guitar 1|-------------------|
    |-----------------------|
    |--1----4--6------------|
    |--2----4--6--| Repeat--| 8x
    |--2----2--4------------|
    |-----------------------|

Guitar 2|------------------------|
    |----------------------------|
    |--9------8---8h9------------|
    |--9----9---9------| Repeat--| 8x
    |--7-------------------------|
    |----------------------------|


Chorus: "When I Die..."
[ Tab from: http://www.guitaretab.com/p/pax-217/31599.html ]
Guitar 1|--------------------------------------------------|
    |------------------------------------------------------|
    |--99999999-77777777----99999999-77777777-4------------|
    |--99999999-77777777----99999999-77777777-4--| Repeat--| 2x
    |--77777777-44444444----77777777-44444444-2------------|
    |------------------------------------------------------|

Guitar 2|--------------------------|
    |-----9-----9-----9------------|
    |--11----11----11--------------|
    |--------------------| Repeat--| 7x
    |------------------------------|
    |------------------------------|

Bridge: "Echo In Me..."

Guitar 1|----------------------|
    |--------------------------|
    |--1----4--6---------------|
    |--2----4--6--|    Repeat--| 4x
    |--2----2--4---------------|
    |--------------------------|

Guitar 2|------------------------|
    |----------------------------|
    |--9------8---8h9------------|
    |--9----9---9------| Repeat--| 4x
    |--7-------------------------|
    |----------------------------|

Ending: "Echo In Me..."


Guitar 2|-------------------------|
    |-------12--9-----------------|
    |--9h11------11--9------------|
    |-------------------| Repeat--| 6x
    |-----------------------------|
    |-----------------------------|

"Good Bye I Love You..."

Guitar 2|---------------|
    |-------------------|
    |----8---8h9--------|
    |--9---9------------|
    |-------------------|
    |-------------------|
Related for Countin Down The Days tab